Regina Spektor

Us

Regina Spektor

tabs Beginner beginner

by  FLULIS_LULIS

save to print version add songbook text version e-mail correct tuner
chordsukulelecavacokeyboardtabbassdrumsharmonicaflute Guitar Pro
close

there isn't a video lesson for this song

chords

Us

	  		{Intro}x2 

   1 & 2 & 3 & 4 &   1 & 2 & 3 & 4 &   1 & 2 & 3 & 4 &   1 & 2 & 3 & 4 & 
e -----------------|-----------------|-----------------|-----------------| 
B -----------------|-----------------|-----------------|-----------------| 
G -----0---0---0---|-----2---2---2---|-----0---0---0---|-----2---2---2---| 
D ---2---2---2---2-|---3---3---3---3-|---2---2---2---2-|---3---3---3---3-| 
A -3---------------|-3---------------|-3---------------|-3---------------| 
E -----------------|-----------------|-----------------|-----------------| 


{Verse 1}x4 

   1 & 2 & 3 & 4 &   1 & 2 & 3 & 4 &   1 & 2 & 3 & 4 &   1 & 2 & 3 & 4 & 
e -----------------|-----------------|-----------------|-----------------| 
B -----------------|-----------------|-----------------|-----------------| 
G -----0---0---0---|-----2---2---2---|-----0---0---0---|-----2---2---2---| 
D ---2---2---2---2-|---3---3---3---3-|---2---2---2---2-|---3---3---3---3-| 
A -3---------------|-3---------------|-3---------------|-3---------------| 
E -----------------|-----------------|-----------------|-----------------| 

C     	    F		C	F 
They made a statue of us 
C	   F		  C	F 
And put it on a mountain top 
C	      F			C	F 
The tourists come and stare at us 
C			F	    C		   F 
Blow bubbles with their gum, take photographs for fun 
     C	   F	 C	F 
Have fun 


{Verse 2}x4 

   1 & 2 & 3 & 4 &   1 & 2 & 3 & 4 &   1 & 2 & 3 & 4 &   1 & 2 & 3 & 4 & 
e -----------------|-----------------|-----------------|-----------------| 
B -----------------|-----------------|-----0---0---0---|-----------------| 
G -----0---0---0---|-----2---2---2---|---0---0---0---0-|-----2---2---2---| 
D ---2---2---2---2-|---3---3---3---3-|-----------------|---3---3---3---3-| 
A -3---------------|-3---------------|-3---------------|-3---------------| 
E -----------------|-----------------|-----------------|-----------------| 

They'll name a city after us 
And later say it's all our fault 
Then they'll give us a talking to, then they'll give us a talking to 
Cause they've got years of experience 


{Chorus}x4 

   1 & 2 & 3 & 4 &   1 & 2 & 3 & 4 &   1 & 2 & 3 & 4 &   1 & 2 & 3 & 4 & 
e -----------------|-----------------|-----------------|-----------------| 
B -------0-------0-|---1-------1-----|-----1---1---1---|-----0---0---0---| 
G ---0-------0-----|-------0-------0-|---2---2---2---2-|---2---2---2---2-| 
D -----------------|-----------------|-----------------|-----------------| 
A -----------------|-----------------|-0---------------|-----------------| 
E -0---0---0---0---|-1---1---1---1---|-----------------|-3---------------| 

	Em	F	      Am	  G 
We're l-i-i-i-i-i-i-ving in a den of thieves 
Em		 F		Am	G 
Rummaging for answers in the pages 
	Em	F	      Am	  G 
We're l-i-i-i-i-i-i-ving in a den of thieves 
Em	      F      Am		  G 
And it's contagious, and it's conagious 
Em	      F	     Am		  G 
And it's contagious, and it's conagious 


{Verse 3}x4 

   1 & 2 & 3 & 4 &   1 & 2 & 3 & 4 &   1 & 2 & 3 & 4 &   1 & 2 & 3 & 4 & 
e -----------------|-----------------|-----------------|-----------------| 
B -----------------|-----------------|-----0---0---0---|-----------------| 
G -----0---0---0---|-----2---2---2---|---0---0---0---0-|-----2---2---2---| 
D ---2---2---2---2-|---3---3---3---3-|-----------------|---3---3---3---3-| 
A -3---------------|-3---------------|-3---------------|-3---------------| 
E -----------------|-----------------|-----------------|-----------------| 

We wear our scarves just like a noose 
But not cause we want eternal sleep 
And though our parts are slightly used 
New ones are slave labour you can keep 


{Chorus} 


{Bridge} 

Am	F	C	G	x4 

   1 & 2 & 3 & 4 &   1 & 2 & 3 & 4 &   1 & 2 & 3 & 4 &   1 & 2 & 3 & 4 & 
e -----------------|-----------------|-----------------|-----------------| 
B -----------------|-----------------|---0---0---0---0-|-----------------| 
G ---0---0---0---0-|---2---2---2---2-|-----0---0---0---|---2---2---2---2-| 
D -----2---2---2---|-----3---3---3---|-----------------|-----3---3---3---| x4 
A -3---------------|-3---------------|-3---------------|-3---------------| 
E -----------------|-----------------|-----------------|-----------------| 



{Verse 4}x4 

   1 & 2 & 3 & 4 &   1 & 2 & 3 & 4 &   1 & 2 & 3 & 4 &   1 & 2 & 3 & 4 & 
e -----------------|-----------------|-----------------|-----------------| 
B -----------------|-----------------|---0---0---0---0-|-----------------| 
G ---0---0---0---0-|---2---2---2---2-|-----0---0---0---|---2---2---2---2-| 
D -----2---2---2---|-----3---3---3---|-----------------|-----3---3---3---| 
A -3---------------|-3---------------|-3---------------|-3---------------| 
E -----------------|-----------------|-----------------|-----------------| 

They made a statue of us, they made a statue of us 
The tourist come and stare at us, the sculptors mama sends regards 
They made a statue of us, they made a statue of us 
Our noses have begun to rust 


{Chorus} 
		  

Full key step upFull key step up
Half key step upHalf key step up
Half key step downHalf key step down
Full key step downFull key step down
hide glossary

See also:

tabs Panic! At The Disco - Only difference between martyrdom and suicide is press coverage tabs Eric Johnson - Cliffs of Dover tabs Santa Esmeralda - You!re my everything/intro tabs Plain White T's - Rhythm Of Love tabs Miley Cyrus - 7 Things tabs JerryC - Canon rock
e-chords

Other versions:

tabs Regina Spektor - Us tabs Steve Harris - Us Against The World tabs Pink Floyd - Us and Them tabs Alan Jackson - Usa Today tabs Nofx - Usa-holes tabs Adorazione - Usa-me Senhor
auto scroll beats size up size down change color hide chords drawings
tab show chords e-chords YouTube Clip e-chords hide all tabs e-chords go to top tab

share