Red Vox

Trolls And Goblins

Red Vox

tabs

by  ANG-LETRA

save to print version add songbook text version e-mail correct tuner
chordsukulelecavacokeyboardtabbassdrumsharmonicaflute Guitar Pro
close

there isn't a video lesson for this song

chords

Trolls And Goblins

	  		Intro 

e|---------------------------------| 
B|---------------------------------| 
G|---------------------------------| x2 
D|---------------------------------| 
A|--4-5-4--4-2-4---4-5-4-2-4-0-2---| 
E|-2------2------2---------------2-| 

e|---------------------------------| 
B|---------------------------------| 
G|---------------------------------| 
D|--7-8-7--7-5-7--7-8-7-5-7-3-5----| 
A|-5------5------5-------------5---| 
E|---------------------------------| 

e|---------------------------------| 
B|---------------------------------| 
G|---------------------------------| x3 
D|---------------------------------| 
A|--4-5-4--4-2-4---4-5-4-2-4-0-2---| 
E|-2------2------2---------------2-| 

e|---------------------------------| 
B|---------------------------------| 
G|---------------------------------| 
D|--7-8-7--7-5-7--7-8-7-5-7-3-5----| 
A|-5------5------5-------------5---| 
E|---------------------------------| 

e|---------------------------------| 
B|---------------------------------| 
G|---------------------------------| 
D|---------------------------------| 
A|--4-5-4--4-2-4---4-5-4-2-4-0-2---| 
E|-2------2------2---------------2-| 
		  

See also:

tabs Deep Purple - Burn tabs Deep Purple - No No No tabs Deep Purple - Smoke on the water(ver. 2) tabs Deep Purple - Time To Kill tabs Deep Purple - Smoke on The Water (ver.3) tabs Deep Purple - Fireball
e-chords

Other versions:

tabs Red Vox - Trolls And Goblins
auto scroll beats size up size down change color hide chords drawings
tab show chords e-chords YouTube Clip e-chords hide all tabs e-chords go to top tab

share