Red Jezebel

Devil's Advocate

Red Jezebel

tabs

save to print version add songbook text version e-mail correct tuner
chordsukulelecavacokeyboardtabbassdrumsharmonicaflute Guitar Pro
close

there isn't a video lesson for this song

chords

Devil's Advocate

	  		Transcribed: 21 May 2004 
 
Notes: This was the Richard Kingsmill's "Kings Pick"  
last night on Home & Hosed.  Nice use of open strings in  
this song. The outro notes might not be 100% correct,  
but the main notes are transcribed & it sounds pretty good.  
Comments & corrections welcome. 
 
INTRO / VERSES: 
E-|---------------------------------------------|- 
B-|-------0---------0---------0--------------0--|- 
G-|-----2---------2---------2----------0---2----|- 
D-|---0---------0---------0-------2--2---2------|- 
A-|-2---------2---------2-----------------------|- 
E-|---------------------------------------------|- 
 
CHORUS CHORDS: 
    G5   B5 
E-|-----------|- 
B-|-----------|- 
G-|------4----|- 
D-|-5----4----|- 
A-|-5----2----|- 
E-|-3---------|- 
 
OUTRO: 
E-|--------------------------------------------------------------------|- 
B-|--------------------------------------------------------------------|- 
G-|-----2------2------2------2------------2------2------2------2-------|- 
D-|---0------0------0------0------------0------0------0------0---------|-(x 6) 
A-|-2------0----------------------------------------0------2------4--5-|- 
E-|---------------3------2------0--2--3------2-------------------------|- 
 
E-|---------------------------------------------|- 
B-|---------------------------------------------|- 
G-|--4---2-------------------------2---4---6--7-|- 
D-|--4---2---5---4---2--4--5---4---2---4---6--7-|-(x 3) 
A-|--2---0---5---4---2--4--5---4---0---2---4--5-|- 
E-|----------3---2---0--2--3---2----------------|- 
 

		  

Full key step upFull key step up
Half key step upHalf key step up
Half key step downHalf key step down
Full key step downFull key step down
hide glossary

See also:

tabs Ben lee - Cigarettes Will Kill You tabs Pete Murray - Tonic tabs The Choirboys - Run To Paradise (solo) tabs Pete Murray - My Time tabs The Vines - In The Jungle (ver. 1) tabs Wolfmother - Woman
e-chords

Other versions:

tabs Red Jezebel - Devil's Advocate
auto scroll beats size up size down change color hide chords drawings
tab show chords e-chords YouTube Clip e-chords hide all tabs e-chords go to top tab

share