Reach

Black Lady

Reach

tabs

by  TAMAMOREIRA

save to print version add songbook text version e-mail correct tuner
chordsukulelecavacokeyboardtabbassdrumsharmonicaflute Guitar Pro
close

there isn't a video lesson for this song

chords

Black Lady

	  		

INTRO 
                              Lady whisper... 
e|--------------------------------------------------------------| 
B|--------------------------------------------------------------| 
G|-2-2-5-5-5-5-7-7-----2---(2)----------------------------------| 
D|-2-2-5-5-5-5-7-7-3-5-2---(2)----------------------------------| 
A|-0-0-2-2-3-3-5-5-3-5-0---(0)----------------------------------| 
E|-----------------1-3------------------------------------------| 



VERS 
                           Its runnin down my spine... 
e|--------------------------------------------------------------| 
B|--------------------------------------------------------------| 
G|--------------------------------------------------------------| 
D|---------------------------------------------------3-5--------| 
A|---------------------------------------------------3-5--------| 
E|---------------------------------------------------1-3--------| 
    
Pre-Chorus 

    runnin in the moonlight...  
e|--------------------------------------------------------------| 
B|--------------------------------------------------------------| 
G|-2----5-------2-----5-4-----2-----5---------------------------| 
D|-2----3-------2-----5-5-----2-----3-----7---------------------| 
A|--0-0---0-0-0---0-0-----0-0---0-0---0-0-5-5-------------------| 
E|------------------------------------------3-------------------| 
                         
                         nothing more to say... 
e|--------------------------------------------------------------| 
B|--------------------------------------------------------------| 
G|-2----5-------2-----5-4-----7---(7)---------------------------| 
D|-2----3-------2-----5-5-----7---(7)------3-3-5-5--------------| 
A|--0-0---0-0-0---0-0-----0-0-5---(5)------3-3-5-5--------------| 
E|-----------------------------------------1-1-3-3--------------| 
  


Chorus 

Black Lady... 
e|--------------------------------------------------------------| 
B|-------------------------------------3------------------------| 
G|----2---------------2--2-------------2------------------------| 
D|----2-----3-------5-2--2-----3-----2-0-5----------------------| 
A|----0-2-3-3-3-2-0-5-0--0-2-3-3-3-2-0---5----------------------| 
E|----------1-------3----------1---------3----------------------| 
                    Tell me, your secret is - 
e|--------------------------------------------------------------| 
B|-----------------------3--------------------------------------| 
G|----2------------------2--------------------------------------| 
D|----2-----3-------5-2--0-----------5--------------------------| 
A|----0-2-3-3-3-2-0-5-0--------------5--------------------------| 
E|----------1-------3----------------3--------------------------| 
  
   my sin... 
e|--------------------------------------------------------------| 
B|--------------------------------0-----------------------------| 
G|--------2-2-5-5-5-5-7-7---------0-----------------------------| 
D|--------2-2-5-5-5-5-7-7---------2-----------------------------| 
A|--------0-0-2-2-3-3-5-5-5-3-2-3-------------------------------| 
E|--------------------------------------------------------------| 


VERS 2 

  I Couldnt listen.... 
e|--------------------------------------------------------------| 
B|--------------------------------------------------------------| 
G|--------------------------------------------------------------| 
D|--------------------------------------------------------------| 
A|-0-0-0-0-0-0-0-0- x5 -----------------------------------------| 
E|--------------------------------------------------------------| 

 Now youre all  inside  my  head 
e|--------------------------------------------------------------| 
B|--------------------------3-----------------------------------| 
G|--------------------------2-----------------------------------| 
D|--------------------------0----3-5----------------------------| 
A|----------2-2-2-2-2-2-2-2------3-5----------------------------| 
E|-------------------------------1-1----------------------------| 

Pre-Chorus 

I dont´ know... 
e|--------------------------------------------------------------| 
B|--------------------------------------------------------------| 
G|-2----5-------2-----5-4-----2-----5---------------------------| 
D|-2----3-------2-----5-5-----2-----3-----7---------------------| 
A|--0-0---0-0-0---0-0-----0-0---0-0---0-0-5-5-------------------| 
E|------------------------------------------3-------------------| 
                         
  Is it you?  is it me?   make it disapear...   
e|--------------------------------------------------------------| 
B|--------------------------------------------------------------| 
G|-2----5-------2-----7-------7---(7)---------------------------| 
D|-2----3-------2-----5-------7---(7)------3-3-5-5--------------| 
A|--0-0---0-0-0---0-0---0-0---5---(5)------3-3-5-5--------------| 
E|-----------------------------------------1-1-3-3--------------| 


Chorus 

Black Lady... 
e|--------------------------------------------------------------| 
B|-------------------------------------3------------------------| 
G|----2---------------2--2-------------2------------------------| 
D|----2-----3-------5-2--2-----3-----2-0-5----------------------| 
A|----0-2-3-3-3-2-0-5-0--0-2-3-3-3-2-0---5----------------------| 
E|----------1-------3----------1---------3----------------------| 
                  
             Tell me, your secret is - 
e|--------------------------------------------------------------| 
B|-----------------------3--------------------------------------| 
G|----2------------------2--------------------------------------| 
D|----2-----3-------5-2--0-----------5--------------------------| 
A|----0-2-3-3-3-2-0-5-0--------------5--------------------------| 
E|----------1-------3----------------3--------------------------| 

Black Lady... 
e|--------------------------------------------------------------| 
B|-------------------------------------3------------------------| 
G|----2---------------2--2-------------2------------------------| 
D|----2-----3-------5-2--2-----3-----2-0-5----------------------| 
A|----0-2-3-3-3-2-0-5-0--0-2-3-3-3-2-0---5----------------------| 
E|----------1-------3----------1---------3----------------------| 
                
             Tell me, your secret is - 
e|--------------------------------------------------------------| 
B|-----------------------3--------------------------------------| 
G|----2------------------2--------------------------------------| 
D|----2-----3-------5-2--0-----------5--------------------------| 
A|----0-2-3-3-3-2-0-5-0--------------5--------------------------| 
E|----------1-------3----------------3--------------------------| 


BRIDGE 

                                           Lady whisper....  
e|--------------------------------------------------------------| 
B|-----------------------------------------3--------------------| 
G|-2-2-5-5-5-5-7-7-----2-2-5-5-5-5-7-7-----2--------------------| 
D|-2-2-5-5-5-5-7-7-3-5-2-2-5-5-5-5-7-7-3-5-0--------------------| 
A|-0-0-2-2-3-3-5-5-3-5-0-0-2-2-3-3-5-5-3-5----------------------| 
E|-----------------1-3-----------------1-3----------------------| 


SOLO 

e|--------------------------------------------------------------| 
B|-------------------------------------------3------------------| 
G|-----5---4---5-4---5---4---5-2---5---4---5-----5---4--5-------| 
D|-2-2---2---2-----2---2---2-----2---2---2----5-5-5-5--5--------| 
A|--------------------------------------------------------------| 
E|--------------------------------------------------------------| 

e|--------------------------------------------------------------| 
B|-------------------------------------------3-5----------------| 
G|-----5---4---5-4---5---4---5-2---5---4---5--------------------| 
D|-2-2---2---2-----2---2---2-----2---2---2----------------------| 
A|--------------------------------------------------------------| 
E|--------------------------------------------------------------| 

e|-15--15-15-15-------------------------------------------------| 
B|-15b----------15b-15r-13-15-15-17-13----15-12-----------------| 
G|-------------------------------------14-------12/9------------| 
D|--------------------------------------------------------------| 
A|--------------------------------------------------------------| 
E|--------------------------------------------------------------| 

e|--17----17-19-17---17-----------------------------------------| 
B|--20b------------20---20-17----17-20-17----17-----------------| 
G|----------------------------19----------19----19-17-----------| 
D|----------------------------------------------------19--------| 
A|--------------------------------------------------------------| 
E|--------------------------------------------------------------| 

e|-------------------19----20-22b-------------------------------| 
B|----------20-17-20----22--------------------------------------| 
G|-16-17-19-----------------------------------------------------| 
D|--------------------------------------------------------------| 
A|--------------------------------------------------------------| 
E|--------------------------------------------------------------| 


Chorus 

Black Lady... 
e|--------------------------------------------------------------| 
B|-------------------------------------3------------------------| 
G|----2---------------2--2-------------2------------------------| 
D|----2-----3-------5-2--2-----3-----2-0-5----------------------| 
A|----0-2-3-3-3-2-0-5-0--0-2-3-3-3-2-0---5----------------------| 
E|----------1-------3----------1---------3----------------------| 
                  
             Tell me, your secret is - 
e|--------------------------------------------------------------| 
B|-----------------------3--------------------------------------| 
G|----2------------------2--------------------------------------| 
D|----2-----3-------5-2--0-----------5--------------------------| 
A|----0-2-3-3-3-2-0-5-0--------------5--------------------------| 
E|----------1-------3----------------3--------------------------| 

Black Lady... 
e|---------------------------------------------------------------------| 
B|---------------------------------------------------------------------| 
G|----2---------------2--2-----------------4-4-5-5-7-7-5-5-4-4---------| 
D|----2-----3-------5-2--2-----3-------5-5---------------------7-7-5-5-| 
A|----0-2-3-3-3-2-0-5-0--0-2-3-3-3-2-0---------------------------------| 
E|----------1-------3----------1---------------------------------------| 
                
                        Tell me, your secret is - 
e|--------------------------------------------------------------| 
B|-----------------------3--------------------------------------| 
G|----2------------------2--------------------------------------| 
D|----2-----3-------5-2--0-----------5--------------------------| 
A|----0-2-3-3-3-2-0-5-0--------------5--------------------------| 
E|----------1-------3----------------3--------------------------| 

 My sin... 
e|--------------------------------------------------------------| 
B|--------------------------------------------------------------| 
G|------2-2-5-5-5-5---------------------------------------------| 
D|------2-2-5-5-5-5---------------------------------------------| 
A|------0-0-2-2-3-----------------------------------------------| 
E|--------------------------------------------------------------| 
		  

See also:

tabs Ira! - Envelheço Na Cidade(Solo - Acustivo Mtv) tabs Deep Purple - No No No tabs Deep Purple - Black Night tabs Deep Purple - Smoke on the water(ver. 2) tabs Deep Purple - Since Youve Been Gone tabs Albert Hammond Jr - In My Room
e-chords

Other versions:

tabs Reach - Black Lady
auto scroll beats size up size down change color hide chords drawings
tab show chords e-chords YouTube Clip e-chords hide all tabs e-chords go to top tab

share