RBD

Vivendo de noche

RBD

tabs

by  TCHE GAROTO

save to print version add songbook text version e-mail correct tuner
chordsukulelecavacokeyboardtabbassdrumsharmonicaflute Guitar Pro
close

there isn't a video lesson for this song

chords

Vivendo de noche

	  		É bem facil, é só escutar a musica que vc pega o tempo certo do solo.!! 
 
E----------------------------------------------------------------- 
B----------------------------------------------------------------- 
G---10-10-10-9-------9h10-9-7-----7-7-7-7h9-7-7---------7-7-7----- 
D---------------10-7----------10----------------10-7-10-------10-- 
A----------------------------------------------------------------- 
E----------------------------------------------------------------- 
 
E---13-13-13-12--------12h13-12-10----10-10-10-10h12-10-10----------10-10-10----- 
B---------------13--10-------------13----------------------13-10-13----------13-- 
G-------------------------------------------------------------------------------- 
D-------------------------------------------------------------------------------- 
A-------------------------------------------------------------------------------- 
E-------------------------------------------------------------------------------- 
 
Qualquer duvida me mande um e-mail  [email protected] 

		  

See also:

tabs Ansia - La Vida Es Como Una Colina tabs RBD - Salvame (ver. 2) tabs RBD - Este Corazón tabs RBD - El Mundo Detrás tabs Alan - Inevitable tabs Camila - U Got My Love
e-chords

Other versions:

tabs RBD - Vivendo de noche
auto scroll beats size up size down change color hide chords drawings
tab show chords e-chords YouTube Clip e-chords hide all tabs e-chords go to top tab

share