RBD

Rebelde (ver. 2)

RBD

tabs

by  BRENDA PALHARES

save to print version add songbook text version e-mail correct tuner
chordsukulelecavacokeyboardtabbassdrumsharmonicaflute Guitar Pro
close

there isn't a video lesson for this song

chords

Rebelde (ver. 2)

	  		   G         D        Em       C 
1--3-3--3---2-2--2---0-0--0---0-0--0---------- 
2--3-3--3---3-3--3---0-0--0---1-1--1---------- 
3--0-0--0---2-2--2---0-0--0---0-0--0------0--- 
4--0-0--0---0-0--0---2-2--2---2-2--2--0h2---0- 
5--2-2--2---0-0--0---2-2--2---3-3--3---------- 
6--3-3--3------------0-0--0---0-0--0---------- 
 
 
   G         D        Em       C 
1--3-3--3---2-2--2---0-0--0---0-0--0---------- 
2--3-3--3---3-3--3---0-0--0---1-1--1---------- 
3--0-0--0---2-2--2---0-0--0---0-0--0------0--- 
4--0-0--0---0-0--0---2-2--2---2-2--2--0h2---0- 
5--2-2--2---0-0--0---2-2--2---3-3--3---------- 
6--3-3--3------------0-0--0---0-0--0---------- 
 
..mientras mi mente viaja ..... (anahi) 
 
   G         D        Em       C 
1--3-3--3---2-2--2---0-0--0---0-0--0---------- 
2--3-3--3---3-3--3---0-0--0---1-1--1---------- 
3--0-0--0---2-2--2---0-0--0---0-0--0------0--- 
4--0-0--0---0-0--0---2-2--2---2-2--2--0h2---0- 
5--2-2--2---0-0--0---2-2--2---3-3--3---------- 
6--3-3--3------------0-0--0---0-0--0---------- 
 
...ke me malgasto mi ....     
 
 
   D                        Em 
Aunque lo escucho ya estoy lejos de aquí 
   D                    C 
cierro los ojos y ya estoy pensando en ti. 
 
 
-CORO- 
         G            D 
Y soy rebelde, cuando no sigo a los demás 
        Em                C 
y soy rebelde, cuando te quiero hasta rabiar 
         G             D 
y soy rebelde, cuando no pienso igual que ayer 
        Em               C 
y soy rebelde, cuando me juego hasta la piel 
         G     D        Em     C 
si soy rebelde,  es que quizás nadie me conoce bien 
 
 
(lo ke sigue es lo mismo ke el intro chekenle o ke la primera parte kantada) 
G                    D 
Alguno de estos días voy a escapar 
Em                        C 
para jugarme todo por un sueño 
  G                   D 
todo en la vida es a perder o ganar 
Em                                C 
hay que apostar, hay que apostar sin miedo 
 
 D                       Em 
no importa mucho lo que digan de mi, 
 D                     C 
cierro los ojos y ya estoy pensando en ti. 
 
-CORO- 
         G            D 
Y soy rebelde, cuando no sigo a los demás 
        Em                C 
y soy rebelde, cuando te quiero hasta rabiar 
         G             D 
y soy rebelde, cuando no pienso igual que ayer 
        Em               C 
y soy rebelde, cuando me juego hasta la piel 
         G     D         Em    C 
si soy rebelde,  es que quizás... 
 
 
solo: 
 
1------ 
2------ 
3------ 
4------   
5?8p10- 
6------ 
 
1-----------------------------------------3---5-3-----8-7-8---14/17?15-14-15-17-17-15-14--- 
2--/8---8/11--8-7-7~---7-8-8/11--3h5--3h5---5-----5--------------------------------------15 
3------------------------------------------------------------------------------------------ 
4------------------------------------------------------------------------------------------ 
5------------------------------------------------------------------------------------------ 
6------------------------------------------------------------------------------------------ 
 
---------------------------------------------------------------------- 
---15-15/17-15-13-12-13--12h13p12------------------------------------- 
----------------------------------14-13~~--------12----12h14p12------- 
-------------------------------------------12h14----14----------12~~-- 
---------------------------------------------------------------------- 
---------------------------------------------------------------------- 
 
 
 
D                       Em 
No importa mucho lo que digan de mi, 
 D                     C 
cierro los ojos y ya estoy pensando en ti. 
 
-CORO- 
         G            D 
Y soy rebelde, cuando no sigo a los demás 
        Em                C 
y soy rebelde, cuando te quiero hasta rabiar 
         G             D 
y soy rebelde, cuando no pienso igual que ayer 
        Em               C 
y soy rebelde, cuando me juego hasta la piel. 
 
         G            D 
Y soy rebelde, cuando no sigo a los demás 
        Em                C 
y soy rebelde, cuando te quiero hasta rabiar 
         G             D 
y soy rebelde, cuando no pienso igual que ayer 
        Em               C 
y soy rebelde, cuando me juego hasta la piel. 
 
Y soy rebelde.... 
 
 
 
 

		  

Full key step upFull key step up
Half key step upHalf key step up
Half key step downHalf key step down
Full key step downFull key step down
hide glossary

See also:

tabs Ansia - La Vida Es Como Una Colina tabs RBD - Salvame (ver. 2) tabs RBD - Este Corazón tabs RBD - El Mundo Detrás tabs Alan - Inevitable tabs Camila - U Got My Love
e-chords

Other versions:

tabs RBD - Rebelde tabs RBD - Rebelde (ver. 2) tabs Carbona - Rebelde sem Causa tabs Ultraje a Rigor - Rebelde Sem Causa - Acústico MTV (ver. 2)
auto scroll beats size up size down change color hide chords drawings
tab show chords e-chords YouTube Clip e-chords hide all tabs e-chords go to top tab

share