RBD

home > RBD

Rebelde Tab

RBD

Difficulty: BeginnerBeginner

by chapoves

tuner correct add songbook print version text version save to e-mail
chordsukulelecavacokeyboardtabbassdrumsharmonicsflute Guitar Pro
chords

Rebelde

Year: 2005 - Album: En Vivo

Key:  G More
Rebelde Key DD
Rebelde Key D#D#
Rebelde Key EE
Rebelde Key FF(one step down)
Rebelde Key F#F#(half step down)
Rebelde Key GG(original key)
Rebelde Key G#G#(half step up)
Rebelde Key AA(one step up)
Rebelde Key A#A#
Rebelde Key BB
Rebelde Key CC
Rebelde Key C#C#
  		                                                         rebelde 
Intro: G D/F# Em C  
 
Riff 1: do final do Acorde C ( mudança para G ) 
 
E|--------------------| 
B|---------1----------| 
G|--------------0-----| 
D|----0h2-----------2-| 
A|--------------------| 
E|--------------------| 
 
Riffzinho 
 
Vai fikar + ou - assim o 'acorde'( OU SE PREFIRIR FASSA C5 ): 
 
E|-----------| 
B|-----------| 
G|-----------| 
D|-----2-----| 
A|-----2-----| 
E|-----3-----| 
 
obs: Mais lembre-se e soh um acorde de passagem....Faça rapidooo.....( teim q ouvi a musica ) 
 
Riff 2 
 
E|----0----0----------| 
B|------------1-----0-| 
G|--0---0--------0----| 
D|--------------------| 
A|--------------------| 
E|--------------------| 
 
Obs: Tem Ainda um riffs qeu to tirando ainda, Qdo eu termina eu coloko aki...fmz!?! 
 
agora comece a tocar a musica 
G                       D/F#   
Mientras mi mente viaja donde tú estás 
 Em               C   
   mi padre grita otra vez  
 G                     D/F#  
que me malgasto mi futuro y su paz 
 Em              C 
   con mi manera de ser.  
 D                      C Riff 1 
Aunque lo escucho ya estoy lejos de aquí  
 D                      C  
cierro los ojos y ya estoy pensando en ti. 
  
-CORO-     
      
         G5                D5  
Y soy rebelde, cuando no sigo a los demás  
 
          Em  Riffzinho     D5  
y soy rebelde, cuando te quiero hasta rabiar  
           G5                D5  
y soy rebelde, cuando no pienso igual que ayer 
  
          Em  Riffzinho     D5 
y soy rebelde, cuando me juego hasta la piel 
 
      G  D/F#                   Em C  
si soy rebelde,  es que quizás nadie me conoce bien.  
 
 G                    D/F#  
Alguno de estos días voy a escapar  
 Em                         C Riff 2 
para jugarme todo por un sueño  
 G                   D/F#  
todo en la vida es a perder o ganar  
 Em                                 C  
hay que apostar, hay que apostar sin miedo  
 D                   C  
no importa mucho lo que digan de mi,  
  D                   C  
cierro los ojos y ya estoy pensando en ti 
 
-CORO- 
 
         G5                D5  
Y soy rebelde, cuando no sigo a los demás  
          Em  Riffzinho     D5 
y soy rebelde, cuando te quiero hasta rabiar 
           G5                D5 
y soy rebelde, cuando no pienso igual que ayer 
           Em  Riffzinho     D5  
y soy rebelde, cuando me juego hasta la piel  
       C  ( Segura Um Pouco ) 
nsi soy rebelde,  es que quizás... 
 
Base do solo: G D/F# Em C (2 vezes)  
 
e|--------------------------| 
B|--------------------------| 
G|--------0h2---------------| 
D|-5h7-ou-------------------|Mais ou menos 15 a vinte vezes ouça a musica 
A|--------------------------| 
E|--------------------------| 
 
e|------------------------------------------| 
B|-3/8-10-8-7--7--7-8-10/5--3--5---8-8-10--8| 
G|------------------------------------------| 
D|------------------------------------------| 
A|------------------------------------------| 
E|------------------------------------------| 
 
e|---------17--15-14--14-15-17--17--15-14-12| 
B|13-12-13----------------------------------| 
G|------------------------------------------| 
D|------------------------------------------| 
A|------------------------------------------| 
E|------------------------------------------| 
 
e|-11-11--12-11-8-7-8-7--5--3---0h2h3--0h2--| 
B|------------------------------------------| 
G|------------------------------------------| 
D|------------------------------------------| 
A|------------------------------------------| 
E|------------------------------------------| 
 
 D                    C  
No importa mucho lo que digan de mi, 
 D                 C 
cierro los ojos y ya estoy pensando en ti.  
 
-CORO-  
           G5                D5  
Y soy rebelde, cuando no sigo a los demás  
           Em  Riffzinho     D5 
y soy rebelde, cuando te quiero hasta rabiar 
           G5                D5 
y soy rebelde, cuando no pienso igual que ayer 
           Em  Riffzinho     D5 
y soy rebelde, cuando me juego hasta la piel.  
           G5               D5  
Y soy rebelde, cuando no sigo a los demás  
           Em  Riffzinho     D5 
y soy rebelde, cuando te quiero hasta rabiar 
           G5                D5 
y soy rebelde, cuando no pienso igual que ayer 
            Em  Riffzinho     D5 
y soy rebelde, cuando me juego hasta la piel.  
Y soy rebelde.... " 
ai essa musica dedico paro o joelson, juliano a para a priscila o amor da minha vida........... 
 

	  

Full key step upFull key step up
Half key step upHalf key step up
Half key step downHalf key step down
Full key step downFull key step down
Search Paypal
auto scroll beats size up size down change color hide chords drawings
tab show chords e-chords YouTube Clip e-chords hide all tabs e-chords go to top tab