RBD

Aburrida y Sola

RBD

tabs Easy easy

by  FALCON09

save to print version add songbook text version e-mail correct tuner
chordsukulelecavacokeyboardtabbassdrumsharmonicaflute Guitar Pro
close

there isn't a video lesson for this song

chords

Aburrida y Sola

	  		Aburrida Y Sola 
RBD 
Composição: Carlos Lara 

Intr: G D Em D ( 4x ) 
E |----------------------------------------------------- 
B |--------8--------8---------------------8------8--- 
G |--4/7------7-5-----5-4-5-7----4/7----7-5----5-4 
D |--------------------------------5-------------------- 
A |----------------------------------------------------- 
E |----------------------------------------------------- 

 E |------------------------------------------------------ 
 A|--8/10-8-8-7h0---------8-------8----------------- 
G |---------------------4/7---7-5-----5-4-5-7-------- 
 D|-------------------------------------------------5----- 
 A|------------------------------------------------------ 
 E |------------------------------------------------------ 

 E |-------------------------5-5h7-8-7---5--5h7-5-3- 
 B |-----------8-------8--------------------------------- 
 G |---4/7--------7-5----------------------------------- 
D  |------------------------------------------------------ 
A  |------------------------------------------------------ 
 E |------------------------------------------------------ 

 G                                                                           C9 
Estacionada en el limbo, me pierdo sin rumbo fijo en estas cuatro paredes. 
G                                                                                              C9                                  A|-----0----2--3--- 
Y es que me importa un carajo si el mundo se viene abajo, si paso un día sin verte. 
Fm        G                          Fm    G 
Y me parece que hago mal , oh si eheey 
Fm              G                       Fm           G                  Fm             G/B 
Cuando me quedo en casa, viviendo todo un drama porque no llamas. 

( G D Em C ) 
Aburrida y sola, creo que te equivocas. 
eheee... aahaaa... 
Voy a salir ahora. 
Aburrida y sola, soy medio peligrosa. 
eheee... aahaaa... 
Voy a salir ahora. 
Si tu no vienes, tu te lo pierdes. 
Si no me encuentras, me fui de cuerda. 
Y si yo salgo con otro chavo, y si me gusta será tu culpa. 
oh si, eheeeey 

G                                                                                 C9 
Me siento desconectada mientras navego en la nada, no sé si mandarte al diablo. 
G                                                                                     C9                                     A|-----0----2--3-- 
Y es que me pone de malas, cuando me dejas colgada mientras te sigo esperando. 
Fm           G                 Fm           G            
Y me parece que hago mal oh si eheeeey 
Fm              G                     Fm              G                  Fm                G/B 
Cuando me quedo en casa, viviendo todo un drama porque no llamas. 

( G D Em C ) 
Aburrida y sola, creo que te equivocas. 
eheee... aahaaa... 
Voy a salir ahora. 
Aburrida y sola, soy medio peligrosa. 
eheee... ahaaa... 
Voy a salir ahora. 
Si tu no vienes, tu te lo pierdes. 
Si no me encuentras, me fui de cuerda. 
Y si yo salgo con otro chavo, y si me gusta será tu culpa. 
oh si eeheey   

A|-----0----2--3-- 

Fm          G                       Fm          G 
Y me parece que hago mal aaaahaaaaaaaaaaaa 
Fm           G                      Fm            G                     Fm                G/B 
Cuando me quedo en casa, viviendo todo un drama porque no llamas. 

( G D Em C ) 
Aburrida y sola, creo que te equivocas. 
eheee... aahaaa... 
Voy a salir ahora. 
Aburrida y sola, soy medio peligrosa. 
eheee... aahaaa... 
Voy a salir ahora. 
Si tu no vienes, tu te lo pierdes. 
Si no me encuentras, me fui de cuerda. 
Y si yo salgo con otro chavo, y si me gusta será tu culpa. 
oh si oh yeeeeeee 
Será tu culpaaaaaaaaaaaaa... 

( G D Em C ) 
Aburrida y sola, creo que te equivocas. 
Neheee... Naahaaa... 
Voy a salir ahora. 
Aburrida y sola, soy medio peligrosa. 
eheee... aahaaa... 
Voy a salir ahora. 


		  

Full key step upFull key step up
Half key step upHalf key step up
Half key step downHalf key step down
Full key step downFull key step down
hide glossary

See also:

tabs Ansia - La Vida Es Como Una Colina tabs RBD - Salvame (ver. 2) tabs RBD - Este Corazón tabs RBD - El Mundo Detrás tabs Alan - Inevitable tabs Camila - U Got My Love
e-chords

Other versions:

tabs RBD - Aburrida y Sola
auto scroll beats size up size down change color hide chords drawings
tab show chords e-chords YouTube Clip e-chords hide all tabs e-chords go to top tab

share