Razorlight

rip it up

Razorlight

tabs

by  CIARAN ONEILL

save to print version add songbook text version e-mail correct tuner
chordsukulelecavacokeyboardtabbassdrumsharmonicaflute Guitar Pro
close

there isn't a video lesson for this song

chords

rip it up

	  		RIP IT UP BY RAZORLIGHT 
PLZ PUT MORE RAZORLIGHT TABS ON HERE THERES NOT ENOUGH!! 
 
Chords: 
  D       Em 
--5-|   --7-| 
--7-|   --8-| 
--7-|   --9-| 
--7-|   --9-| 
--5-|   --7-| 
----|   ----| 
 
Intro: 
-7-7-7-7----5-5-5-5-5---R 
-7-7-7-7----7-7-7-7-7---E 
-7-7-7-7----7-7-7-7-7---P 
-7-7-7-7----7-7-7-7-7---E 
-7-7-7-7----5-5-5-5-5---A 
------------------------T 
 
Verse: 
-7-7-7-7----5-5-5-5-5---R  Hey girl, get on the dance floor,  
-7-7-7-7----7-7-7-7-7---E  And rip it up, yeah, 
-7-7-7-7----7-7-7-7-7---P  That's what it's there for. 
-7-7-7-7----7-7-7-7-7---E 
-7-7-7-7----5-5-5-5-5---A 
------------------------T 
 
Chorus: 
-7-7-7-7-7-7-7-7-7-7-7-7-7-7-7-7--| 
-8-8-8-8-8-8-8-8-8-8-8-8-8-8-8-8--| That's what it's there for, 
-9-9-9-9-9-9-9-9-9-9-9-9-9-9-9-9--| So rip it up, yeah, 
-9-9-9-9-9-9-9-9-9-9-9-9-9-9-9-9--| And rip it up and tear it up 
-7-7-7-7-7-7-7-7-7-7-7-7-7-7-7-7--| Until you really don't know why 
----------------------------------| 
 
"Until you don't know why" 
-7-7-7-7----5-5-5-5-5---R 
-7-7-7-7----7-7-7-7-7---E 
-7-7-7-7----7-7-7-7-7---P 
-7-7-7-7----7-7-7-7-7---E 
-7-7-7-7----5-5-5-5-5---A 
------------------------T 
 
Verse 2: (Guitar 1)        Verse 2 (guitar 2) 
-7-7-7-7----5-5-5-5-5---R ---------------| 
-7-7-7-7----7-7-7-7-7---E ---------------|---basically just play 
-7-7-7-7----7-7-7-7-7---P --77777777777--| '7' repeatedly. 
-7-7-7-7----7-7-7-7-7---E ---------------| 
-7-7-7-7----5-5-5-5-5---A ---------------| 
------------------------T ---------------| 
I've seen a man there, 
Down at the station, 
He's got a hell of ideas, 
He's got too many reservations. 
 
Chorus: 
-7-7-7-7-7-7-7-7-7-7-7-7-7-7-7-7--| 
-8-8-8-8-8-8-8-8-8-8-8-8-8-8-8-8--| And turns me round yeah, 
-9-9-9-9-9-9-9-9-9-9-9-9-9-9-9-9--| And breaks my heart yeah, 
-9-9-9-9-9-9-9-9-9-9-9-9-9-9-9-9--| And rips me up and tears me up 
-7-7-7-7-7-7-7-7-7-7-7-7-7-7-7-7--| You know I really, don't know why. 
----------------------------------| 
 
"No I dont know why" 
-7-7-7-7----5-5-5-5-5---| 
-7-7-7-7----7-7-7-7-7---| 
-7-7-7-7----7-7-7-7-7---| 
-7-7-7-7----7-7-7-7-7---| 
-7-7-7-7----5-5-5-5-5---| 
------------------------| 
 
Verse 3: (Guitar 1&2) 
          D 
She says love is a law, 
 
But don't you come round no more, 
            Em 
She says I loved you so much more, 
               D 
When you were down on the floor. 
 
Verse 4: (both guitars) 
-7-7-7-7----5-5-5-5-5---| 
-7-7-7-7----7-7-7-7-7---| I said well, well 
-7-7-7-7----7-7-7-7-7---| That ain't nothing, 
-7-7-7-7----7-7-7-7-7---| You got to rip it up, 
-7-7-7-7----5-5-5-5-5---| You got to pick a stitch 
------------------------| 
 
Chorus: 
-7-7-7-7-7-7-7-7-7-7-7-7-7-7-7-7--| 
-8-8-8-8-8-8-8-8-8-8-8-8-8-8-8-8--| And turn me round yeah, 
-9-9-9-9-9-9-9-9-9-9-9-9-9-9-9-9--| And break my heart yeah, 
-9-9-9-9-9-9-9-9-9-9-9-9-9-9-9-9--| and rip me up and tear me up 
-7-7-7-7-7-7-7-7-7-7-7-7-7-7-7-7--| until I really don't know why. 
----------------------------------| 
 
Guitar 1:-- strums D throughout the solo every now and then. It starts from when Jhonny sings  
No i really don't know why...do you? 
 
Guitar 2: 
---------------------------------R 
-----7-----7-----7-----7-8-7---7-E 
-7h9---7h9---7h9---7h9-------9---P 
---------------------------------E   x2 
---------------------------------A 
---------------------------------T 
 
--------------------------------------------R 
-----10-----10-----10-----10-8-7---7--------E 
-7h9----7h9----7h9----7h9--------9----------P 
--------------------------------------------E  x2 
--------------------------------------------A 
--------------------------------------------T 
 
Verse 5: 
-7-7-7-7----5-5-5-5-5---| 
-7-7-7-7----7-7-7-7-7---| Hey girl! Get on the dance floor___ 
-7-7-7-7----7-7-7-7-7---| Just like I told you, 
-7-7-7-7----7-7-7-7-7---| So rip it up and tear it up 
-7-7-7-7----5-5-5-5-5---| until you really dont know why. 
------------------------| 
(speed up the riff a bit on 'so rip it up and tear it up') 
 
Chorus: 
-7-7-7-7-7-7-7-7-7-7-7-7-7-7-7-7--| 
-8-8-8-8-8-8-8-8-8-8-8-8-8-8-8-8--| Thats what its there for, 
-9-9-9-9-9-9-9-9-9-9-9-9-9-9-9-9--| So rip it up yeah, 
-9-9-9-9-9-9-9-9-9-9-9-9-9-9-9-9--| So rip it up and tear it up 
-7-7-7-7-7-7-7-7-7-7-7-7-7-7-7-7--| until you really dont know why. 
----------------------------------| 
 
Outro verse: 
-7-7-7-7----5-5-5-5-5---| 
-7-7-7-7----7-7-7-7-7---| Until you dont know why, 
-7-7-7-7----7-7-7-7-7---| So rip it up yeah, 
-7-7-7-7----7-7-7-7-7---| And tear it up yeah, 
-7-7-7-7----5-5-5-5-5---| And just please dont stop 
------------------------| But rip it up. 
 
 
  
  
 

		  

Full key step upFull key step up
Half key step upHalf key step up
Half key step downHalf key step down
Full key step downFull key step down
hide glossary

See also:

tabs Razorlight - rip it up tabs Razorlight - America (intro) tabs Blondie - The tide is high tabs Bowling For Soup - Girl All The Bad Guys Want tabs Bowling For Soup - My hometown tabs Bowling For Soup - The Bitch Song
e-chords

Other versions:

tabs 28 Days - Rip It Up tabs Razorlight - rip it up tabs Razorlight - Rip it up (ver. 2)
auto scroll beats size up size down change color hide chords drawings
tab show chords e-chords YouTube Clip e-chords hide all tabs e-chords go to top tab

share