Raul Seixas

Rock das Aranhas

Raul Seixas

tabs Beginner beginner

by  MNETO

save to print version add songbook text version e-mail correct tuner
chordsukulelecavacokeyboardtabbassdrumsharmonicaflute Guitar Pro
close

there isn't a video lesson for this song

chords

Rock das Aranhas

Year: 1996 - Album: Coleção Eldorado: Raul Vivo [Edição Limitada]

(Roberto/ Seixas)

	  		Riff 1 
E|--------------------------| 
B|--------------------------| 
G|--------------------2-----| 
D|---------2 2---5-5----5---| 
A|---3 3--------------------| 
E|--------------------------| 
Riff 2                            Riff 3 
E|-------7-------------5--|---------8--------8~----10----8---10/12\10----8---10-----8-| 
B|------------------------|---10-------10---------------------------------------------| 
G|---6/7-----------5/6----|-----------------------------------------------------------| 
D|------------------------|-----------------------------------------------------------| 
A|------------------------|-----------------------------------------------------------| 
E|------------------------|-----------------------------------------------------------| 
      Riff 4 
E|-11-10-8--------------------------| 
B|---------11-10-8------------------| 
G|-----------------11-10-8-10-8/9---| 
D|-------------------------------10-| 
A|----------------------------------| 
E|----------------------------------| 
Riff 5 
E|-17\15---13---------15----------------------------------------| 
B|-------------15/17-------17\15---13--15--13--15---15/17-15/17-| 
G|--------------------------------------------------------------| 
D|--------------------------------------------------------------| 
A|--------------------------------------------------------------| 
E|--------------------------------------------------------------| 
Riff 6                      Riff 7 
E|-----------------------|----------------| 
B|------(11)-11----------|----------------| 
G|--11^------11\9--9--8--|------9\7----5--| 
D|-----------------------|------9~--------| 
A|-----------------------|----------------| 
E|-----------------------|----------------| 
Riff 8 
E|----------17---15--13-----------------------------------| 
B|--------------------------16\15--13-15/17-15/17-(15/17)-| 
G|--------------------------------------------------------| 
D|--------------------------------------------------------| 
A|--------------------------------------------------------| 
E|--------------------------------------------------------| 
Riff 9 
E|-------------8---------8\6-| 
B|--------6/8~---8--11--------| 
G|----------------------------| 
D|----------------------------| 
A|----------------------------| 
E|----------------------------| 
Riff 10 
E|--11--10--8---------------11--10--8------------| 
B|---------------11--10--8-----------------------| 
G|----------------------------------------7/9-9--| 
D|-----------------------------------------------| 
A|-----------------------------------------------| 
E|-----------------------------------------------| 
Riff 11 
E|---------8--6----------------------------| 
B|------------7----------------------------| 
G|-------------------10--8/9------------9--| 
D|---------------------------10--8--10-10--| 
A|-------------------------------------10--| 
E|-------------------------------------8---| 
 
 
 
|  C          C7 
|Subi no muro do quintal 
|  C                    C7 
|e vi uma transa que não é normal 
|  C             C7 
|e ninguém vai acreditar 
Riff 1|   C                        C7 
|Eu vi duas mulher botando aranha prá brigar 
|  C           C7 
|Duas aranhas, duas aranhas 
|Duas aranhas, duas aranhas 
|_ _ 
 
G       (Riff 2) 
Vem cá mulher deixe de manha 
F                           C (Riff 3)G    
minha cobra quer comer sua aranha 
 
|     C         C7 
|Meu corpo todo se tremeu 
|   C              C7 
|e nem minha cobra entendeu 
|    C                C7 
Riff 1|Cumé que pode duas aranhas se esfregando 
|    C                  C7 
|Eu tô sabendo, alguma coisa tá faltando 
|     C                C7 
|É minha cobra, cobra criada 
|         C             C7 
|É minha cobra, cobra criada 
 
G      (Riff 2) 
Vem cá mulher deixe de manha 
F                           C (Riff 4)  G 
minha cobra quer comer sua aranha 
 
|C             C7 
|Deve ter uma boa explicação 
|   C                      C7 
|O que estas aranhas tão fazendo aí no chão 
|C             C7 
|Uma em cima, outra em baixo 
|   C                      C7 
Riff 1|A cobra perguntando "Onde é que eu me encaixo?" 
|        C             C7 
|É minha cobra, cobra criada 
|        C             C7 
|É minha cobra, cobra criada 
G      (Riff 2) 
Vem cá mulher deixe de manha 
       F                    C (Riff 5) G 
minha cobra quer comer sua aranha 
 
|   C                 C7 
|Soltei a cobra e ela foi direto 
|         C                    C7 
|foi pro meio das aranhas prá mostrar cumé que é certo 
|C             C7 
|Cobra com aranha é que dá pé 
Riff 1| C                     C7 
|Aranha com aranha sempre deu em jacaré 
|C                      C7 
|É minha cobra  com as aranha 
|        C              C7 
|É minha cobra  com as aranha 
 
G       (Riff 2) 
Vem cá mulher deixe de manha 
        F                    C (Riff 6)  G 
minha cobra quer comer sua aranha 
               C (Riff 7) C7 
É o rock das aranha 
              C (Riff 8) C7 
É o rock das aranha 
              F (Riff 9)(F7)opcional 
É o rock das aranha 
                C(Riff 10) C7 
É o rock das aranha 
       G 
Vem cá mulher deixe de manha 
       F                          C  G  C  
minha cobra quer comer sua aranha 
 
Final 
Riff 11 
  
manda brasa  

		  

Full key step upFull key step up
Half key step upHalf key step up
Half key step downHalf key step down
Full key step downFull key step down
auto scroll beats size up size down change color hide chords drawings
tab show chords e-chords YouTube Clip e-chords hide all tabs e-chords go to top tab

share