Ratatat

Cream On Chrome

Ratatat

tabs

by  EDUCASTILHO

save to print version add songbook text version e-mail correct tuner
chordsukulelecavacokeyboardtabbassdrumsharmonicaflute Guitar Pro
close

there isn't a video lesson for this song

chords

Cream On Chrome

	  		


Tuning: Standard 

        Intro (0:00 - 0:46) 
e|------------------------------------------------------------| 
B|-------15----------------15--------------13-----------------| 
G|---15----------------15-------------------------15----------| 
D|------------------------------------------------------------| 
A|------------------------------------------------------------| 
E|------------------------------------------------------------| 
  (Repeat as necessary) 



        Part 1 (0:47 - 0:59) 
e|-------------------------------------|-------------------------------------| 
B|-------13-----------13(sfb15)--------|-------13-----------13(sfb15)--------| 
G|---12-------12--15-------------------|---12-------12--15-------------------| 
D|-------------------------------------|-------------------------------------| 
A|-------------------------------------|-------------------------------------| 
E|-------------------------------------|-------------------------------------| 

e|-------------------------------------|-------------------------------------| 
B|-------13-------13--13(pb15r13)------|-------13-------13--13(pb15sr13)-----| 
G|---12-------12----------------12--15-|---12-------12--------------------15-| 
D|-------------------------------------|-------------------------------------| 
A|-------------------------------------|-------------------------------------| 
E|-------------------------------------|-------------------------------------| 

e|-------------------------------------| 
B|------13-----13-----13-----13--------| 
G|---12-----12-----12-----12------15---| 
D|-------------------------------------| 
A|-------------------------------------| 
E|-------------------------------------| 



        Repeat Intro (1:00 - 1:23) 
e|------------------------------------------------------------| 
B|-------15----------------15--------------13-----------------| 
G|---15----------------15-------------------------15----------| 
D|------------------------------------------------------------| 
A|------------------------------------------------------------| 
E|------------------------------------------------------------| 



        Part 1 (1:24 - 1:48) 
e|-------------------------------------|-------------------------------------| 
B|-------13-----------13(sfb15)--------|-------13-----------13(sfb15)--------| 
G|---12-------12--15-------------------|---12-------12--15-------------------| 
D|-------------------------------------|-------------------------------------| 
A|-------------------------------------|-------------------------------------| 
E|-------------------------------------|-------------------------------------| 

e|-------------------------------------|-------------------------------------| 
B|-------13-------13--13(pb15r13)------|-------13-------13--13(pb15sr13)-----| 
G|---12-------12----------------12--15-|---12-------12--------------------15-| 
D|-------------------------------------|-------------------------------------| 
A|-------------------------------------|-------------------------------------| 
E|-------------------------------------|-------------------------------------| 

e|-------------------------------------| 
B|------13-----13-----13-----13--------| 
G|---12-----12-----12-----12------15---| 
D|-------------------------------------| 
A|-------------------------------------| 
E|-------------------------------------| 



        Part 2 (1:49 - 2:00) 
e|-------------------------------------|-------------------------------------| 
B|------13-----13----------------------|------13-----13----------------------| 
G|---12-----12-----15~-----------------|---12-----12-----15~-----------------| 
D|-------------------------------------|-------------------------------------| 
A|-------------------------------------|-------------------------------------| 
E|-------------------------------------|-------------------------------------| 

e|-------------------------------------|-------------------------------------| 
B|-------------------------------------|--20(pb22r20)-18-------13(pb15r13)---| 
G|---12-15--12-15--15~-----------------|----------------20---------------15~-| 
D|-------------------------------------|-------------------------------------| 
A|-------------------------------------|-------------------------------------| 
E|-------------------------------------|-------------------------------------| 

e|-------------------------------------| 
B|------13-----13-----13-----13--------| 
G|---12-----12-----12-----12------15~--| 
D|-------------------------------------| 
A|-------------------------------------| 
E|-------------------------------------| 



        Bass solo (2:01 - 2:09) 



        Repeat Intro (2:10 - 2:37) 
e|------------------------------------------------------------| 
B|-------15----------------15--------------13-----------------| 
G|---15----------------15-------------------------15----------| 
D|------------------------------------------------------------| 
A|------------------------------------------------------------| 
E|------------------------------------------------------------| 



Still workin on the solo! Here's a small piece. 
I watched live versions and it appears to be played on the high e string 


        Solo (2:38 - 2:57) 
e|-15~--13h15p13-10~--8\6---8/10~---10-13---------------------| 
B|------------------------------------------------------------| 
G|------------------------------------------------------------| 
D|------------------------------------------------------------| 
A|------------------------------------------------------------| 
E|------------------------------------------------------------| 

e|-15--13h15/17-13h15p13-15--10-10~---10-13-------------------| 
B|------------------------------------------------------------| 
G|------------------------------------------------------------| 
D|------------------------------------------------------------| 
A|------------------------------------------------------------| 
E|------------------------------------------------------------| 

e|-15~--13h15p13-10~--8\6-6-8/10--8h10p8--6~-8p6-6~-8/10--13~-10~--10-13-| 
B|-----------------------------------------------------------------------| 
G|-----------------------------------------------------------------------| 
D|-----------------------------------------------------------------------| 
A|-----------------------------------------------------------------------| 
E|-----------------------------------------------------------------------| 

e|-15~--13h15p13-10~--8\6---8/10~---10-13---------------------| 
B|------------------------------------------------------------| 
G|------------------------------------------------------------| 
D|------------------------------------------------------------| 
A|------------------------------------------------------------| 
E|------------------------------------------------------------| 

e|-15--13h15p13-10~--13-10h13p10\6--6--6h8/10-----------------| 
B|------------------------------------------------------------| 
G|------------------------------------------------------------| 
D|------------------------------------------------------------| 
A|------------------------------------------------------------| 
E|------------------------------------------------------------| 

e|-15~--13h15p13-10~--8\6---8/10~---10-13---------------------| 
B|------------------------------------------------------------| 
G|------------------------------------------------------------| 
D|------------------------------------------------------------| 
A|------------------------------------------------------------| 
E|------------------------------------------------------------| 

e|-15--13h15/17-13h15p13-15~~~~\10-10~~~~---------------------| 
B|------------------------------------------------------------| 
G|------------------------------------------------------------| 
D|------------------------------------------------------------| 
A|------------------------------------------------------------| 
E|------------------------------------------------------------| 




************************************ 

| /   slide up 
| \   slide down 
| h   hammer-on 
| p   pull-off 
| ~   let ring 
| +   harmonic 
| x   Mute note 
| sfb   Slow full bend 
| pb  Pre-bend 
| br  Bend release 
| pbr Pre-bend release 
| brb Bend release bend 

************************************ 
		  

See also:

tabs Deep Purple - Black Night tabs Deep Purple - Soldier Of Fortune tabs Deep Purple - Demon's Eye tabs Ira! - Envelheço na Cidade tabs Deep Purple - Smoke on the Water (correct) tabs Ira! - Tarde Vazia (Acústico)
e-chords

Other versions:

tabs Ratatat - Cream On Chrome
auto scroll beats size up size down change color hide chords drawings
tab show chords e-chords YouTube Clip e-chords hide all tabs e-chords go to top tab

share