Rastaclone

home > Rastaclone

Adeus (solo) Tab

Rastaclone

Difficulty: nolevelnolevel

by VELHO

tuner correct add songbook print version text version save to e-mail
chordsukulelecavacokeyboardtabbassdrumsharmonicsflute Guitar Pro
chords

Adeus (solo)

  		E|---7-7--5--7--7--7--5--7--7--7--5--7--7------------------8---7---5---7-------------------| 
B|---8-8--7--8--8--8--7--8--8--8--7--8--8----8/10--8------8---8---8---8--------------------| 
G|----------------------------------------------------7------------------------------------| 
D|-----------------------------------------------------------------------------------------| 
A|-----------------------------------------------------------------------------------------| 
E|-----------------------------------------------------------------------------------------| 


E|---7-7--5--7--7--7--5--7--7--7--5--7--7--------------------------------------------------| 
B|---8-8--7--8--8--8--7--8--8--8--7--8--8----8/10--8----------8----7---8---7---------------| 
G|----------------------------------------------------7---7/9----9---9---9---9/12----------| 
D|-----------------------------------------------------------------------------------------| 
A|-----------------------------------------------------------------------------------------| 
E|-----------------------------------------------------------------------------------------| 


	  

Search Paypal
auto scroll beats size up size down change color hide chords drawings
tab show chords e-chords YouTube Clip e-chords hide all tabs e-chords go to top tab