Rammstein

home > Rammstein

Stripped Tab

Rammstein

Difficulty: BeginnerBeginner

by Du+Hast

tuner correct add songbook print version text version save to e-mail
chordsukulelecavacokeyboardtabbassdrumsharmonicsflute Guitar Pro
chords

Stripped

  		
Main Part: 
                                                                  1/2 
D|---2--2---0--2--0--2--2---0--2---0--2--2---0--2---0--2--2---12b^---- 
A|---2--2---0--2--0--2--2---0--2---0--2--2---0--2---0--2--2---12b^---- 
D|---2--2---0--2--0--2--2---0--2---0--2--2---0--2---0--2--2---12b^----X3  
 
THEN ADD THIS VARIATION 
D|---2--2---0--2--0--2--2---0--2---0--2--2---0--2---0--2--2---0-2-2---- 
A|---2--2---0--2--0--2--2---0--2---0--2--2---0--2---0--2--2---0-2-2---- 
D|---2--2---0--2--0--2--2---0--2---0--2--2---0--2---0--2--2---0-2-2---- 
 
 
 
Keyboard Part arranged for Guitar 
 e|----------------------5---------6-------------8------------- 
 B|--3--------5---------------------------------------------6--- 
 G|-------------------------------------------------------------- 
 D|-------------------------------------------------------------- 
 A|------------------------------------------------------------- 
 E|-------------------------------------------------------------- 
 

	  

Search Paypal
auto scroll beats size up size down change color hide chords drawings
tab show chords e-chords YouTube Clip e-chords hide all tabs e-chords go to top tab