Rammstein

home > Rammstein

Sensucht Tab

Rammstein

Difficulty: nolevelnolevel

tuner correct add songbook print version text version save to e-mail
chordsukulelecavacokeyboardtabbassdrumsharmonicsflute Guitar Pro
chords

Sensucht

  		tab definitions:
hammer ons/pull offs: 5^7 hammer on from 5th fr to 7th fr, or 7^5 pull off from 7th fr to 5th fr
slides: 5/7 slide from 5th fr to 7th fr, or 7\5(slide from 7th fr to 5th fr
vibrato: 5~ 
held notes: 7 (7) play note and sustain for time shown
            q  q
fret hand muting: x
palm muting: 0-3-2 
             pm--- 

rhythm definitions:

whole: w
half: h
quarter: q
eighth: e
sixteenth: s

whole rest: W
half rest: H
quarter rest: Q
eighth rest: E
sixteenth rest: S

Sehnsucht:

intro: (after synth rhythm starts)

(no guirtar for 4 bars)
e|--------------------|---------------------|--------------------|---------------------|
B|--------------------|---------------------|--------------------|---------------------|
G|--------------------|---------------------|--------------------|---------------------|
D|--------------------|---------------------|--------------------|---------------------|
A|--------------------|---------------------|--------------------|---------------------|
E|--------------------|---------------------|--------------------|---------------------|
   W                    W                     W                    W

gtr.1 w/distortion
e|--------------------|---------------------|--------------------|---------------------|
B|--------------------|---------------------|--------------------|---------------------|
G|--------9-7----10-9-|---12------10-xx-9-7-|--------9-7----10-9-|---12------10-xx-9-7-|
D|--9-9-9-9-7-9--10-9-|-9-12--9-9-10-xx-9-7-|--9-9-9-9-7-9--10-9-|-9-12--9-9-10-xx-9-7-|
A|--7-7-7-7-5-7--8--7-|-7-10--7-7-8--xx-7-5-|--7-7-7-7-5-7--8--7-|-7-10--7-7-8--xx-7-5-|
E|--0-0-0-----0-------|-0-----0-0-----------|--0-0-0-----0-------|-0-----0-0-----------|
    e e e e e e  e  e   e e   e e e  ss e e    e e e e e e  e  e   e e   e e e  ss e e
    pm---     pm        pm    pm-              pm---     pm        pm    pm- 

e|--------------------|---------------------|--------------------|---------------------|
B|--------------------|---------------------|--------------------|---------------------|
G|--------9-7----10-9-|---12------10-xx-9-7-|--------9-7----10-9-|---12------10-xx-9-7-|
D|--9-9-9-9-7-9--10-9-|-9-12--9-9-10-xx-9-7-|--9-9-9-9-7-9--10-9-|-9-12--9-9-10-xx-9-7-|
A|--7-7-7-7-5-7--8--7-|-7-10--7-7-8--xx-7-5-|--7-7-7-7-5-7--8--7-|-7-10--7-7-8--xx-7-5-|
E|--0-0-0-----0-------|-0-----0-0-----------|--0-0-0-----0-------|-0-----0-0-----------|
    e e e e e e  e  e   e e   e e e  ss e e    e e e e e e  e  e   e e   e e e  ss e e
    pm---     pm        pm    pm-              pm---     pm        pm    pm- 

e|--------------------|---------------------|--------------------|---------------------|
B|--------------------|---------------------|--------------------|---------------------|
G|--------9-7----10-9-|---12------10-xx-9-7-|--------9-7----10-9-|---12------10-xx-9-7-|
D|--9-9-9-9-7-9--10-9-|-9-12--9-9-10-xx-9-7-|--9-9-9-9-7-9--10-9-|-9-12--9-9-10-xx-9-7-|
A|--7-7-7-7-5-7--8--7-|-7-10--7-7-8--xx-7-5-|--7-7-7-7-5-7--8--7-|-7-10--7-7-8--xx-7-5-|
E|--0-0-0-----0-------|-0-----0-0-----------|--0-0-0-----0-------|-0-----0-0-----------|
    e e e e e e  e  e   e e   e e e  ss e e    e e e e e e  e  e   e e   e e e  ss e e
    pm---     pm        pm    pm-              pm---     pm        pm    pm- 

                                             verse 1:
                                             "Lass mish deine..."
e|--------------------|---------------------|--------------------|---------------------|
B|--------------------|---------------------|--------------------|---------------------|
G|--------------------|---------------------|--------------------|---------------------|
D|--------------------|---------------------|--------------------|---------------------|
A|--------------------|---------------5-4-4-|-2------------------|---------------------|
E|--------------------|---------------3-2-2-|-0------------------|---------------------|
   W                    H+E           e e e   e  H+Q+E             W
                                      pm------- 

  (synth arranged for guitar throughout verse)
e|---12-----12--------|---12-----12---------|--------------------|---------------------|
B|--------------------|---------------------|--------------------|---------------------|
G|--------------------|---------------------|--------------------|---------------------|
D|--------------------|---------------------|--------------------|---------------------|
A|--------------------|---------------------|--------------------|---------------------|
E|--------------------|---------------------|--------------------|---------------------|
   E e  E E e  Q+E      E e  E E e  Q+E       W                    W

e|---12-----12--------|---12-----12---------|--------------------|---------------------|
B|--------------------|---------------------|--------------------|---------------------|
G|--------------------|---------------------|--------------------|---------------------|
D|--------------------|---------------------|--------------------|---------------------|
A|--------------------|---------------------|--------------------|---------------------|
E|--------------------|---------------------|--------------------|---------------------|
   E e  E E e  Q+E      E e  E E e  Q+E       W                   W

e|---12-----12--------|---12-----12-13-12---|--------------------|---------------------|
B|--------------------|---------------------|--------------------|---------------------|
G|--------------------|---------------------|--------------------|---------------------|
D|--------------------|---------------------|--------------------|---------------------|
A|--------------------|---------------------|--------------------|---------------------|
E|--------------------|---------------------|--------------------|---------------------|
   E e  E E e  Q+E      E e  E E e  e  e  E   W                   W

e|--------------------|---------------------|
B|---12-----12--------|---12-----12-13-12---|
G|--------------------|---------------------|
D|--------------------|---------------------|
A|--------------------|---------------------|
E|--------------------|---------------------|
   E e  E E e  Q+E      E e  E E e  e  e  E 

interlude:

gtr.1 w/distortion
e|--------------------|---------------------|--------------------|---------------------|
B|--------------------|---------------------|--------------------|---------------------|
G|--------9-7----10-9-|---12------10-xx-9-7-|--------9-7----10-9-|---12------10-xx-9-7-|
D|--9-9-9-9-7-9--10-9-|-9-12--9-9-10-xx-9-7-|--9-9-9-9-7-9--10-9-|-9-12--9-9-10-xx-9-7-|
A|--7-7-7-7-5-7--8--7-|-7-10--7-7-8--xx-7-5-|--7-7-7-7-5-7--8--7-|-7-10--7-7-8--xx-7-5-|
E|--0-0-0-----0-------|-0-----0-0-----------|--0-0-0-----0-------|-0-----0-0-----------|
    e e e e e e  e  e   e e   e e e  ss e e    e e e e e e  e  e   e e   e e e  ss e e
    pm---     pm        pm    pm-              pm---     pm        pm   pm- 

e|--------------------|---------------------|--------------------|---------------------|
B|--------------------|---------------------|--------------------|---------------------|
G|--------9-7----10-9-|---12------10-xx-9-7-|--------9-7----10-9-|---12------10-xx-9-7-|
D|--9-9-9-9-7-9--10-9-|-9-12--9-9-10-xx-9-7-|--9-9-9-9-7-9--10-9-|-9-12--9-9-10-xx-9-7-|
A|--7-7-7-7-5-7--8--7-|-7-10--7-7-8--xx-7-5-|--7-7-7-7-5-7--8--7-|-7-10--7-7-8--xx-7-5-|
E|--0-0-0-----0-------|-0-----0-0-----------|--0-0-0-----0-------|-0-----0-0-----------|
    e e e e e e  e  e   e e   e e e  ss e e    e e e e e e  e  e   e e   e e e  ss e e
    pm---     pm        pm    pm-              pm---     pm        pm    pm- 

verse 2:
"Lass mish deine..."
  (synth arranged for guitar throughout verse)
e|--------------------|---------------------|---12-----12--------|---12-----12---------|
B|--------------------|---------------------|--------------------|---------------------|
G|--------------------|---------------------|--------------------|---------------------|
D|--------------------|---------------------|--------------------|---------------------|
A|--------------------|---------------------|--------------------|---------------------|
E|--------------------|---------------------|--------------------|---------------------|
   W                    W                     E e  E E e  Q+E      E e  E E e Q+E

e|--------------------|---------------------|---12-----12--------|---12-----12---------|
B|--------------------|---------------------|--------------------|---------------------|
G|--------------------|---------------------|--------------------|---------------------|
D|--------------------|---------------------|--------------------|---------------------|
A|--------------------|---------------------|--------------------|---------------------|
E|--------------------|---------------------|--------------------|---------------------|
   W                    W                     E e  E E e  Q+E      E e  E E e  Q+E

e|--------------------|---------------------|---12-----12--------|---12-----12-13-12---|
B|--------------------|---------------------|--------------------|---------------------|
G|--------------------|---------------------|--------------------|---------------------|
D|--------------------|---------------------|--------------------|---------------------|
A|--------------------|---------------------|--------------------|---------------------|
E|--------------------|---------------------|--------------------|---------------------|
   W                    W                     E e  E E e  Q+E      E e  E E e  e  e  E 

                                              (drum fill for 2 bars)
e|--------------------|---------------------|--------------------|---------------------|
B|--------------------|---------------------|--------------------|---------------------|
G|--------------------|---------------------|--------------------|---------------------|
D|--------------------|---------------------|--------------------|---------------------|
A|--------------------|---------------------|--------------------|---------------------|
E|--------------------|---------------------|--------------------|---------------------|
   W                    W                     W                    W

1st chorus:
"Senhsucht versteckt..."

gtr.1 w/distortion
e|--------------------|---------------------|--------------------|---------------------|
B|--------------------|---------------------|--------------------|---------------------|
G|--------9-7----10-9-|---12------10-xx-9-7-|--------9-7----10-9-|---12------10-xx-9-7-|
D|--9-9-9-9-7-9--10-9-|-9-12--9-9-10-xx-9-7-|--9-9-9-9-7-9--10-9-|-9-12--9-9-10-xx-9-7-|
A|--7-7-7-7-5-7--8--7-|-7-10--7-7-8--xx-7-5-|--7-7-7-7-5-7--8--7-|-7-10--7-7-8--xx-7-5-|
E|--0-0-0-----0-------|-0-----0-0-----------|--0-0-0-----0-------|-0-----0-0-----------|
    e e e e e e  e  e   e e   e e e  ss e e    e e e e e e  e  e   e e   e e e  ss e e
    pm---     pm        pm    pm-              pm---     pm        pm   pm- 
e|--------------------|---------------------|--------------------|---------------------|
B|--------------------|---------------------|--------------------|---------------------|
G|--------9-7----10-9-|---12------10-xx-9-7-|--------9-7----10-9-|---12------10-xx-9-7-|
D|--9-9-9-9-7-9--10-9-|-9-12--9-9-10-xx-9-7-|--9-9-9-9-7-9--10-9-|-9-12--9-9-10-xx-9-7-|
A|--7-7-7-7-5-7--8--7-|-7-10--7-7-8--xx-7-5-|--7-7-7-7-5-7--8--7-|-7-10--7-7-8--xx-7-5-|
E|--0-0-0-----0-------|-0-----0-0-----------|--0-0-0-----0-------|-0-----0-0-----------|
    e e e e e e  e  e   e e   e e e  ss e e    e e e e e e  e  e   e e   e e e  ss e e
    pm---     pm        pm    pm-              pm---     pm        pm    pm- 

"Glucklich werd ich..."
e|--------------------|---------------------|--------------------|---------------------|
B|--------------------|---------------------|--------------------|---------------------|
G|--------9-7----10-9-|---12------10-xx-9-7-|--------9-7----10-9-|---12------10-xx-9-7-|
D|--9-9-9-9-7-9--10-9-|-9-12--9-9-10-xx-9-7-|--9-9-9-9-7-9--10-9-|-9-12--9-9-10-xx-9-7-|
A|--7-7-7-7-5-7--8--7-|-7-10--7-7-8--xx-7-5-|--7-7-7-7-5-7--8--7-|-7-10--7-7-8--xx-7-5-|
E|--0-0-0-----0-------|-0-----0-0-----------|--0-0-0-----0-------|-0-----0-0-----------|
    e e e e e e  e  e   e e   e e e  ss e e    e e e e e e  e  e   e e   e e e  ss e e
    pm---     pm        pm    pm-              pm---     pm        pm    pm- 
                                             "Sehnsucht est so grausam..."
e|--------------------|---------------------|------------------|-----------------|
B|--------------------|---------------------|------------------|-----------------|
G|--------9-7----10-9-|---12------10-xx-9-7-|--9-----9-----9---|---9-------------|
D|--9-9-9-9-7-9--10-9-|-9-12--9-9-10-xx-9-7-|--9-----9-----9---|---9-------------|
A|--7-7-7-7-5-7--8--7-|-7-10--7-7-8--xx-7-5-|--7-----7-----7---|---7-----5-5-4-4-|
E|--0-0-0-----0-------|-0-----0-0-----------|----0-0---0-0---0-|-0---0-0-3-3-2-2-|
    e e e e e e  e  e   e e   e e e  ss e e    e e e e e e e e   e e e e e e e e
    pm---     pm        pm    pm-                pm-   pm-   pm---   pm--------- 
  "Sehnsucht"
e|--------------------|---------------------|--------------------|---------------------|
B|--------------------|---------------------|--------------------|---------------------|
G|--------9-7----10-9-|---12------10-xx-9-7-|--------9-7----10-9-|---12------10-xx-9-7-|
D|--9-9-9-9-7-9--10-9-|-9-12--9-9-10-xx-9-7-|--9-9-9-9-7-9--10-9-|-9-12--9-9-10-xx-9-7-|
A|--7-7-7-7-5-7--8--7-|-7-10--7-7-8--xx-7-5-|--7-7-7-7-5-7--8--7-|-7-10--7-7-8--xx-7-5-|
E|--0-0-0-----0-------|-0-----0-0-----------|--0-0-0-----0-------|-0-----0-0-----------|
    e e e e e e  e  e   e e   e e e  ss e e    e e e e e e  e  e   e e   e e e  ss e e
    pm---     pm        pm    pm-              pm---     pm        pm   pm- 

e|--------------------|---------------------|--------------------|---------------------|
B|--------------------|---------------------|--------------------|---------------------|
G|--------9-7----10-9-|---12------10-xx-9-7-|--------9-7----10-9-|---12------10-xx-9-7-|
D|--9-9-9-9-7-9--10-9-|-9-12--9-9-10-xx-9-7-|--9-9-9-9-7-9--10-9-|-9-12--9-9-10-xx-9-7-|
A|--7-7-7-7-5-7--8--7-|-7-10--7-7-8--xx-7-5-|--7-7-7-7-5-7--8--7-|-7-10--7-7-8--xx-7-5-|
E|--0-0-0-----0-------|-0-----0-0-----------|--0-0-0-----0-------|-0-----0-0-----------|
    e e e e e e  e  e   e e   e e e  ss e e    e e e e e e  e  e   e e   e e e  ss e e
    pm---     pm        pm    pm-              pm---     pm        pm    pm- 

                                             "Sehnsucht"
e|--------------------|---------------------|--------------------|---------------------|
B|--------------------|---------------------|--------------------|---------------------|
G|--5-(5)-------------|---------------------|--------9-7----10-9-|---12------10-xx-9-7-|
D|--5-(5)-5-(5)----7--|-(7)--2---(2)-(2)----|--9-9-9-9-7-9--10-9-|-9-12--9-9-10-xx-9-7-|
A|--3-(3)-5-(5)----7--|-(7)--2---(2)-(2)----|--7-7-7-7-5-7--8--7-|-7-10--7-7-8--xx-7-5-|
E|--------3-(3)----5--|-(5)--0---(0)-(0)----|--0-0-0-----0-------|-0-----0-0-----------|
    q  e  q  e     q     e   h    q   e        e e e e e e  e  e   e e   e e e  ss e e
                                               pm---     pm        pm   pm- 

e|--------------------|---------------------|--------------------|---------------------|
B|--------------------|---------------------|--------------------|---------------------|
G|--------9-7----10-9-|---12------10-xx-9-7-|--5-(5)-------------|---------------------|
D|--9-9-9-9-7-9--10-9-|-9-12--9-9-10-xx-9-7-|--5-(5)-5-(5)----7--|-(7)--2---(2)-(2)----|
A|--7-7-7-7-5-7--8--7-|-7-10--7-7-8--xx-7-5-|--3-(3)-5-(5)----7--|-(7)--2---(2)-(2)----|
E|--0-0-0-----0-------|-0-----0-0-----------|--------3-(3)----5--|-(5)--0---(0)-(0)----|
    e e e e e e  e  e   e e   e e e  ss e e    q  e  q  e     q     e   h    q   e
    pm---     pm        pm    pm- 

(no guirtar for 16 bars)
e|--------------------|---------------------|--------------------|---------------------|
B|--------------------|---------------------|--------------------|---------------------|
G|--------------------|---------------------|--------------------|---------------------|
D|--------------------|---------------------|--------------------|---------------------|
A|--------------------|---------------------|--------------------|---------------------|
E|--------------------|---------------------|--------------------|---------------------|
   W                    W                     W                   W

e|--------------------|---------------------|--------------------|---------------------|
B|--------------------|---------------------|--------------------|---------------------|
G|--------------------|---------------------|--------------------|---------------------|
D|--------------------|---------------------|--------------------|---------------------|
A|--------------------|---------------------|--------------------|---------------------|
E|--------------------|---------------------|--------------------|---------------------|
   W                    W                     W                    W

  (bass enters)
e|--------------------|---------------------|--------------------|---------------------|
B|--------------------|---------------------|--------------------|---------------------|
G|--------------------|---------------------|--------------------|---------------------|
D|--------------------|---------------------|--------------------|---------------------|
A|--------------------|---------------------|--------------------|---------------------|
E|--------------------|---------------------|--------------------|---------------------|
   W                    W                     W                   W

e|--------------------|---------------------|--------------------|---------------------|
B|--------------------|---------------------|--------------------|---------------------|
G|--------------------|---------------------|--------------------|---------------------|
D|--------------------|---------------------|--------------------|---------------------|
A|--------------------|---------------------|--------------------|---------------------|
E|--------------------|---------------------|--------------------|---------------------|
   W                    W                     W                    W

2nd chorus:
"Senhsucht versteckt..."

gtr.1 w/distortion
e|--------------------|---------------------|--------------------|---------------------|
B|--------------------|---------------------|--------------------|---------------------|
G|--------------------|---------------------|--------------------|---------------------|
D|--2-----------------|-(2)-----------------|--2-----------------|-(2)-----------------|
A|--2-----------------|-(2)--------5-5-4-4--|--2-----------------|-(2)--------5-5-4-4--|
E|--0-----------------|-(0)--------3-3-2-2--|--0-----------------|-(0)--------3-3-2-2--|
    w                    h         e e e e     w                    h         e e e e
                                   pm-----                                    pm----- 

e|--------------------|---------------------|--------------------|---------------------|
B|--------------------|---------------------|--------------------|---------------------|
G|--5-----------------|-(5)--------5---2----|--2-----------------|-(2)-----------------|
D|--5-----------------|-(5)--------5---4----|--2-----------------|-(2)-----------------|
A|--3-----------------|-(3)--------3---4----|--0-----------------|-(0)--------5-5-4-4--|
E|--------------------|---------------------|--------------------|------------3-3-2-2--|
    w                    h         q   q       w                    h         e e e e

"Glucklich werd ich..."
e|--------------------|---------------------|--------------------|---------------------|
B|--------------------|---------------------|--------------------|---------------------|
G|--------------------|---------------------|--------------------|---------------------|
D|--2-----------------|-(2)-----------------|--2-----------------|-(2)-----------------|
A|--2-----------------|-(2)--------5-5-4-4--|--2-----------------|-(2)--------5-5-4-4--|
E|--0-----------------|-(0)--------3-3-2-2--|--0-----------------|-(0)--------3-3-2-2--|
    w                    h         e e e e     w                    h         e e e e
                                   pm-----                                   pm----- 

e|--------------------|---------------------|--------------------|---------------------|
B|--------------------|---------------------|--------------------|---------------------|
G|--5-----------------|-(5)--------5---2----|--2-----------------|-(2)-----------------|
D|--5-----------------|-(5)--------5---4----|--2-----------------|-(2)-----------------|
A|--3-----------------|-(3)--------3---4----|--0-----------------|-(0)--------5-5-4-4--|
E|--------------------|---------------------|--------------------|------------3-3-2-2--|
    w                    h         q   q       w                    h         e e e e
                                   pm-----                                    pm----- 
final chorus:
  "Sehnsucht"
e|--------------------|---------------------|--------------------|---------------------|
B|--------------------|---------------------|--------------------|---------------------|
G|--------9-7----10-9-|---12------10-xx-9-7-|--------9-7----10-9-|---12------10-xx-9-7-|
D|--9-9-9-9-7-9--10-9-|-9-12--9-9-10-xx-9-7-|--9-9-9-9-7-9--10-9-|-9-12--9-9-10-xx-9-7-|
A|--7-7-7-7-5-7--8--7-|-7-10--7-7-8--xx-7-5-|--7-7-7-7-5-7--8--7-|-7-10--7-7-8--xx-7-5-|
E|--0-0-0-----0-------|-0-----0-0-----------|--0-0-0-----0-------|-0-----0-0-----------|
    e e e e e e  e  e   e e   e e e  ss e e    e e e e e e  e  e   e e   e e e  ss e e
    pm---     pm        pm    pm-              pm---     pm        pm   pm- 

e|--------------------|---------------------|--------------------|---------------------|
B|--------------------|---------------------|--------------------|---------------------|
G|--------9-7----10-9-|---12------10-xx-9-7-|--------9-7----10-9-|---12------10-xx-9-7-|
D|--9-9-9-9-7-9--10-9-|-9-12--9-9-10-xx-9-7-|--9-9-9-9-7-9--10-9-|-9-12--9-9-10-xx-9-7-|
A|--7-7-7-7-5-7--8--7-|-7-10--7-7-8--xx-7-5-|--7-7-7-7-5-7--8--7-|-7-10--7-7-8--xx-7-5-|
E|--0-0-0-----0-------|-0-----0-0-----------|--0-0-0-----0-------|-0-----0-0-----------|
    e e e e e e  e  e   e e   e e e  ss e e    e e e e e e  e  e   e e   e e e  ss e e
    pm---     pm        pm    pm-              pm---     pm        pm    pm- 

e|--------------------|---------------------|--------------------|---------------------|
B|--------------------|---------------------|--------------------|---------------------|
G|--------9-7----10-9-|---12------10-xx-9-7-|--------9-7----10-9-|---12------10-xx-9-7-|
D|--9-9-9-9-7-9--10-9-|-9-12--9-9-10-xx-9-7-|--9-9-9-9-7-9--10-9-|-9-12--9-9-10-xx-9-7-|
A|--7-7-7-7-5-7--8--7-|-7-10--7-7-8--xx-7-5-|--7-7-7-7-5-7--8--7-|-7-10--7-7-8--xx-7-5-|
E|--0-0-0-----0-------|-0-----0-0-----------|--0-0-0-----0-------|-0-----0-0-----------|
    e e e e e e  e  e   e e   e e e  ss e e    e e e e e e  e  e   e e   e e e  ss e e
    pm---     pm        pm    pm-              pm---     pm        pm    pm- 

ending:
"Sehnsucht"
e|--------------------|---------------------|
B|--------------------|---------------------|
G|--------9-7----10-9-|---12------10--------|
D|--9-9-9-9-7--9-10-9-|-9-12--9-9-10--------|
A|--7-7-7-7-5--7-8--7-|-7-10--7-7-8---------|
E|--0-0-0------0------|-0-----0-0-----------|
    e e e e e e  e  e   e e   e e e  Q+E
    pm---      pm       pm    pm- 

To get the distortion like Rammstein's, crank the bass to full and have a fair bit
of treble on your amp. Distortion on full of course. All the palm muting is about 
2 to 3 centemetres from the bridge
	  

Search Paypal
auto scroll beats size up size down change color hide chords drawings
tab show chords e-chords YouTube Clip e-chords hide all tabs e-chords go to top tab