Rammstein

home > Rammstein

Schwaezes Glas Tab

Rammstein

Difficulty: nolevelnolevel

by Du+Hast

tuner correct add songbook print version text version save to e-mail
chordsukulelecavacokeyboardtabbassdrumsharmonicsflute Guitar Pro
chords

Schwaezes Glas

  		Intro 
E----------- 
B----------- 
G----------- 
D-7-10-7-8-5- 
A-7-10-7-8-5- 
E-7-10-7-8-5- 
 
 
Keyboard thing 
E----------- 
B----------- 
G----------- 
D----12--14- 
A-12-------- 
E----------- 
 
 
Play After each verse is sung 
E-------------------------- 
B-------------------------- 
G-------------------------- 
D-2-2-2-2-2/3--2-2-2-2/3-0- 
A-2-2-2-2-2/3--2-2-2-2/3-0- 
E-2-2-2-2-2/3--2-2-2-2/3-0- 
pm_______      _____ 
 
 
Chrous (Schwarzes Glas mich blendet Licht) 
E------------------ 
B------------------ 
G------------------ 
D-3-0-7--7-10-7-8-5- 
A-3-0-7--7-10-7-8-5- 
E-3-0-7--7-10-7-8-5- 
 
 
Solo: this is the part I heard (it fades) 
E--------------------------------------------------------------- 
B-----12-0----12-0---12-0-10-0-7-0----10-0-----10-0-----7-0----- 
G-9-0-----9-0-----9-0--------------7-0-----7-0------7-0-----7-0- 
D--------------------------------------------------------------- 
A--------------------------------------------------------------- 
E--------------------------------------------------------------- 
 
 
E------------------------ 
B-----8-0-----8-0----8-0- 
G-5-0-----5-0-----5-0---- 
D------------------------ 
A------------------------ 
E------------------------ 
 
 

	  

Search Paypal
auto scroll beats size up size down change color hide chords drawings
tab show chords e-chords YouTube Clip e-chords hide all tabs e-chords go to top tab