Rammstein

home > Rammstein

Rammvier Ramm4 Tab

Rammstein

Difficulty: nolevelnolevel

by robepoiel

tuner correct add songbook print version text version save to e-mail
chordsukulelecavacokeyboardtabbassdrumsharmonicsflute Guitar Pro
chords

Rammvier Ramm4

  		
Main Riff 

PM 
e|------------------------|-----------------------| 
B|------------------------|-----------------------| 
G|------------------------|-----------------------| 
D|5---5-----5-5---5-----5-5---5-8---8-3---3-6---6-| 
A|5---5-----5-6---6-----6-7---7-8---8-3---3-6---6-| 
D|5---5-----5-5---5-----5-5---5-8---8-3---3-6---6-| 


Hold 
e|------------|-----------|-----------|-----------| 
B|------------|-----------|-----------|-----------| 
G|------------|-----------|-----------|-----------| 
D|5-----------|-----------|-----------|-----------| 
A|5-----------|-----------|-----------|-----------| 
D|5-----------|-----------|-----------|-----------| 


Verse 

e|------------------------|-----------------------|-----------------------|-----------------------| 
B|------------------------|-----------------------|-----------------------|-----------------------| 
G|------------------------|-----------------------|-----------------------|-----------------------| 
D|5---5-----5-5---5-----5-5---5-----5-8---8-3---3-5---5-----5-5---5-----5-5---5-----5-5---5-5---5-| 
A|5---5-----5-5---5-----5-5---5-----5-8---8-3---3-5---5-----5-5---5-----5-5---5-----5-5---5-5---5-| 
D|5---5-----5-5---5-----5-5---5-----5-8---8-3---3-5---5-----5-5---5-----5-5---5-----5-5---5-5---5-| 

e|------------------------|-----------------------|-----------------------|-----------------------| 
B|------------------------|-----------------------|-----------------------|-----------------------| 
G|----------------------3-3---3-------------------|-----------------------|-----------------------| 
D|3---3-----3-3---3-----3-3---3-----3-3---3-3---3-5---5-----5-5---5-----5-5---5-----5-8---8-3---3-| 
A|3---3-----3-3---3-----1-1---1-----3-3---3-3---3-5---5-----5-5---5-----5-5---5-----5-8---8-3---3-| 
D|3---3-----3-3---3-------|---------3-3---3-3---3-5---5-----5-5---5-----5-5---5-----5-8---8-3---3-| 


Buildup 

e|------------|-----------|-----------|-----------|-----------|-----------| 
B|------------|-----------|-----------|-----------|-----------|-----------| 
G|------------|-----------5-----------7-----------|-----------|-----------| 
D|1-----------0-----------5-----------7-----------3-----------|-----------| 
A|1-----------0-----------3-----------5-----------3-----------|-----------| 
D|1-----------0-----------|-----------|-----------3-----------|-----------| 


Solo 

e|------------------------|-----------------------|-----------------------|-----------------------| 
B|------------------------|-----------------------|-----------------------|-----------------------| 
G|------------------------|-----------------------|-----------------------|-----------------------| 
D|------------5-----------|-----------------------|-----------5-----------|-----------------------| 
A|------------------------4-----------------------|-----------------------4-----------------------| 
D|5-----------------------|---------7-4-----7-----5-----------------------|---------7-4-----7-----| 

e|------------------------|-----------------------|-----------------------|-----------------------| 
B|------------------------|-----------------6-----7-----------------------|-----------------------| 
G|7---------------------7-8-----7-----5-----------|-----------5-----------|-----------------------| 
D|------------------------|-----------------------|-----------------------|-----------------------| 
A|------------------------|-----------------------|-----------------------|-----------------------| 
D|------------------------|-----------------------|-----------------------|-----------------------| 


Post Solo NaNa 
                                                                        
e|------------|-----------|-----------|-----------|-----------|-----------|-----------|-----------| 
B|------------|-----------|-----------|-----------|-----------|-----------|-----------|-----------| 
G|------------|-----------|-----------|-----------|-----------|-----------|-----------|-----------| 
D|------------|-----------|-----------|-----------|-----------|-----------|-----------|-----------| 
A|------------|-----------|-----------|-----------|-----------|-----------|-----------|-----------| 
D|5-----------|-----------5-----------|-----------3-----------|-----------5-----------|-----------| 


Post Solo Buildup 

e|------------|-----------|-----------|-----------|-----------|-----------|-----------|-----------| 
B|------------|-----------|-----------|-----------|-----------|-----------|-----------|-----------| 
G|------------|-----------5-----------7-----------|-----------|-----------|-----------|-----------| 
D|1-----------0-----------5-----------7-----------3-----------8--6--5--3--5-----------|-----------| 
A|1-----------0-----------3-----------5-----------3-----------8--6--5--3--5-----------|-----------| 
D|1-----------0-----------|-----------|-----------3-----------8--6--5--3--5-----------|-----------| 
	  

Search Paypal
auto scroll beats size up size down change color hide chords drawings
tab show chords e-chords YouTube Clip e-chords hide all tabs e-chords go to top tab