Rammstein

home > Rammstein

Rammlied Tab

Rammstein

Difficulty: ExpertExpert

by aman%5Fclaudino

tuner correct add songbook print version text version save to e-mail
chordsukulelecavacokeyboardtabbassdrumsharmonicsflute Guitar Pro
chords

Rammlied

  		(afinação 2 tons abaixo) 

(Refrão) 
  RAMM!!!            STEIN!!! 
D |----------------------------------------| 
A |----------------------------------------| 
F |----------------------------------------| 
C |-2----7----5----3-----2----7----9--5--7-| 
G |-2----7----5----3-----2----7----9--5--7-| 
C |-2----7----5----3-----2----7----9--5--7-| 

   RAMM!!!            STEIN!!! 
D |----------------------------------------------------| 
A |----------------------------------------------------| 
F |----------------------------------------------------| 
C |-2----7----5----3-----2----7----9--5--7-------------| 
G |-2----7----5----3-----2----7----9--5--7--//11b12~~~-| 
C |-2----7----5----3-----2----7----9--5--7-------------| 

D |------------------------------------------------------------| 
A |------------------------------------------------------------| 
F|*-----------------------------------------------------------| 
C|*-9-----------9-----------9-10-9-----------9-----------12/8-| 
G |--7--7-7-7-7--7--7-7-7-7--7/8/-7--7-7-7-7--7--7-7-7-7--10/6-| 
C |------------------------------------------------------------| 

D |-----------------------------------------------------------| 
A |-----------------------------------------------------------| 
F |----------------------------------------------------------*| 
C |-9-----------9-----------7-10-9-----------9-----9---------*| 
G |-7--7-7-7-7--7--7-7-7-7--5/8/-7--7-7-7-7--7-7-7-7-7-7-7-7--| 
C |-----------------------------------------------------------| 

(verso) 
D |-------------------------------------------|-------------------------------------------| 
A |-------------------------------------------|-------------------------------------------| 
F|*------------------------------------------|------------------------------------------*| 
C|*-1p0--0--3p0--0--1p0--0--3p0--0--1p0--3p0-|-1p0--0--3p0--0--1p0--0--3p0--0--1p0--3/2-*| 
G |-------------------------------------------|-------------------------------------------| 
C |-------------------------------------------|-------------------------------------------| 

(ponte) 
D |-------------------------------------------------------------------------| 
A |-------------------------------------------------------------------------| 
F |-------------------------------------------------------------------------| 
C |-0-0-0-0--0-0-0-0---0-0-0-0--0-0-0-0--2-2-2-2--2-2-2-2--2-2-2-2--2-2-2-2-| 
G |-0-0-0-0--0-0-0-0---0-0-0-0--0-0-0-0--2-2-2-2--2-2-2-2--2-2-2-2--2-2-2-2-| 
C |-0-0-0-0--0-0-0-0---0-0-0-0--0-0-0-0--2-2-2-2--2-2-2-2--2-2-2-2--2-2-2-2-| 

D |------------------------------------------------------------------------------------| 
A |------------------------------------------------------------------------------------| 
F |------------------------------------------------------------------------------------| 
C |-0-0-0-0--0-0-0-0---0-0-0-0--0-0-0-0--2-2-2-2--2-2-2-2--2-2-2-2---2-2-2-2-2-3-1-1-0-| 
G |-0-0-0-0--0-0-0-0---0-0-0-0--0-0-0-0--2-2-2-2--2-2-2-2--2-2-2-2---2-2-2-2-2-3-1-1-0-| 
C |-0-0-0-0--0-0-0-0---0-0-0-0--0-0-0-0--2-2-2-2--2-2-2-2--2-2-2-2---2-2-2-2-2-3-1-1-0-| 

(interlúdio) 
D |-----------|-----------|-----------|-----------| 
A |-----------|-----------|-----------|-----------| 
F |-7--7--7-7-|-7--7--7-7-|-7--7--7-7-|-7--7--7-7-| 
C |-x--x--x-x-|-x--x--x-x-|-x--x--x-x-|-x--x--x-x-| 
G |-5--5--5-5-|-5--5--5-5-|-5--5--5-5-|-5--5--5-5-| 
C |-----------|-----------|-----------|-----------| 

(guitarra) 
D |-----------|-----------|-----------|-----------| 
A |-----------|-----------|-----------|-----------| 
F |-----------|-----------|-----------|-----------| 
C |-----------|-----------|-----------|-----------| 
G |-----------|-----------|-----------|-----------| 
C |-0--0--0-0-|-5--5--5-5-|-3--3--3-3-|-1--1--1-1-| 

D |-----------------------------------------------------------| 
A |-----------------------------------------------------------| 
F |-----------------------------------------------------------| 
C |-9---------------9---------------9-------9------9-7-5/10-9-| 
G |-7--7-7-7-7-7-7--7--7-7-7-7-7-7--7--7-7--7--7-7-7-5-3/8--7-| 
C |-----------------------------------------------------------| 
	  

Search Paypal
auto scroll beats size up size down change color hide chords drawings
tab show chords e-chords YouTube Clip e-chords hide all tabs e-chords go to top tab