Rammstein

home > Rammstein

Moskau Tab

Rammstein

Difficulty: AdvancedAdvanced

tuner correct add songbook print version text version save to e-mail
chordsukulelecavacokeyboardtabbassdrumsharmonicsflute Guitar Pro
chords

Moskau

  		 A musica eh quase toda assim... 
 
Riff1 
    G#5      Bb5       E5 
E|----4------------6----------0~-------------------------- | 
A|----6------------8----------2~-------------------------- | 
D|-------------------------------------------------- |    
G|-------------------------------------------------- |  
B|-------------------------------------------------- | 
e|-------------------------------------------------- | 
Riff2 
   G#5       Bb5        E5    B5      Bb5 
E|----4------------6----------0~---7---------6---- | 
A|----6------------8----------2~---9--------8---- | 
D|-------------------------------------------------- |    
G|-------------------------------------------------- |  
B|-------------------------------------------------- | 
e|-------------------------------------------------- | 
Riff1 
    G#5      Bb5       E5 
E|----4------------6----------0~-------------------------- | 
A|----6------------8----------2~-------------------------- | 
D|-------------------------------------------------- |    
G|-------------------------------------------------- |  
B|-------------------------------------------------- | 
e|-------------------------------------------------- | 
Riff3 
    G#5      F#5       E5 
E|----4------------2----------0~-------------------------- | 
A|----6------------4----------2~-------------------------- | 
D|-------------------------------------------------- |    
G|-------------------------------------------------- |  
B|-------------------------------------------------- | 
e|-------------------------------------------------- | 
(Nessa ultima parte, as vezes vem um B5 e Bb5, igual o riff2...) 
 
 
 Tem uma parte que dai vem um "break" +/- assim oh...  
Break 
   C#5*      A5 / A#5*        A5*         D5 / D#5 
E|----9~------------------------------------------------10/11~------------------ | 
A|-----------------11/12---------------11------------------------------------- | 
D|-------------------------------------------------- |    
G|-------------------------------------------------- |  
B|-------------------------------------------------- | 
e|-------------------------------------------------- | 
 
(essa parte ai seria meio disorcida, mas eu nao sei bem como eh...) 

	  

Full key step upFull key step up
Half key step upHalf key step up
Half key step downHalf key step down
Full key step downFull key step down
Search Paypal
auto scroll beats size up size down change color hide chords drawings
tab show chords e-chords YouTube Clip e-chords hide all tabs e-chords go to top tab