Rammstein

home > Rammstein

Los - Reise Reise Tab

Rammstein

Difficulty: nolevelnolevel

by jessgomes

tuner correct add songbook print version text version save to e-mail
chordsukulelecavacokeyboardtabbassdrumsharmonicsflute Guitar Pro
chords

Los - Reise Reise

  		MI primer tabletura, Los, basada en un concierto de Rammstein en vivo, espero les guste. 

------------------------------------------------------ 
------------------------------------------------------ 
------------------------------------------------------ 
----1---3-----5-------1---3-----5-------1---3-----5--- 
0-0-1-0-3-0-0-0---0-0-1-0-3-0-0-0---0-0-1-0-3-0-0-0--- 
0-0-1-0-3-0-0-0---0-0-1-0-3-0-0-0---0-0-1-0-3-0-0-0--- 


-------------------------------------------------------- 
-------------------------------------------------------- 
-------------------------5-3---------------------------- 
----1---3/5-5-5--------------3-------------------------- 
0-0-1-0-3/5-5-5----------------3-----3-5--3------------- 
0-0-1-0-3/5-5-5------------------3-5--------3-5--------- 
	  

Search Paypal
auto scroll beats size up size down change color hide chords drawings
tab show chords e-chords YouTube Clip e-chords hide all tabs e-chords go to top tab