Rammstein

home > Rammstein

Laichzeit Tab

Rammstein

Difficulty: nolevelnolevel

by lazygirl

tuner correct add songbook print version text version save to e-mail
chordsukulelecavacokeyboardtabbassdrumsharmonicsflute Guitar Pro
chords

Laichzeit

  		Main Riff/Chorus: 
------------------------------ 
------------------------------ 
------------------------------ 
------------------------------      sometimes 
--2-2-2--2-2-2--2-2-5-3-------      the last three 
--0-0-0--0-0-0--0-0-3-1-------      notes are open 
  x x x  x x x  x x x x   p.m. 
 
Brake: 
------------------------------ 
------------------------------ 
------------------------------ 
--5--5-5-5--5-8-6------------- 
--5--5-5-5--5-8-6------------- 
--3--3-3-3--3-6-4------------- 
 
End: 
------------------------------ 
------------------------------ 
----------------0--0---------- 
----------------0--0---------- 
--2-2-2--2-2-2---------------- 
--0-0-0--0-0-0---------------- 
  x x x  x x x  x  x      p.m. 
 
 
[email protected] 

	  

Search Paypal
auto scroll beats size up size down change color hide chords drawings
tab show chords e-chords YouTube Clip e-chords hide all tabs e-chords go to top tab