Rammstein

Ich Tu Dir Weh

Rammstein

tabs

by  ABELAMIN

save to print version add songbook text version e-mail correct tuner
chordsukulelecavacokeyboardtabbassdrumsharmonicaflute Guitar Pro
close

there isn't a video lesson for this song

chords

Ich Tu Dir Weh

	  		(Intro) 
E|---------------|-----------------|-----------------|---------------| 
B|---------------|-----------------|-----------------|---------------| 
G|---------------|-----------------|-----------------|---------------| 
D|---------------|-----------------|-----------------|---------------| 
A|-0--0--0-0-0---|---0--0--0-0-0---|---0--0--0-0-0---|---0--0--0-0-0-| 
D|-0--0--0-0-0---|---0--0--0-0-0---|---0--0--0-0-0---|---0--0--0-0-0-| 

meanest riff {intro} 
E|----------------------------------------------------| 
B|----------------------------------------------------| 
G|----------------------------------------------------| 
D|--0-0-----0-0-----0-0-----530653--------------------| 
A|--0-0-----0-0-----0-0-----530653--------------------| 
D|--0-0-0-0-0-0-0-0-0-0-0-0-530653--------------------| 
pm       . .     . .     . . 

(Verse) 
Guitar 1 
E|--------------------------------------------------| 
B|--------------------------------------------------| 
G|--------------------------------------------------| 
D|--------------------------------------------------|x4 
A|--5-5-----5-5-----5-5----15-15--------------------| 
D|--0-0-0-0-0-0-0-0-0-0-0-0-0-0---------------------| 
pm       . .     . .     . . 

Guitar 1 
E|--------------------------------------------------- 
B|--------------------------------------------------- 
G|--------------------------------------------------- 
D|--------------------------------------------------- 
A|--5-5-----5-5-----7-7-----7-7-----8-8-----10-10----12-12 
D|--0-0-0-0-0-0-0-0-0-0-0-0-0-0-0-0-0-0-0-0-0--0-0-0-0--0- 
pm    . 

(guitar 2) 
E|--------------------------------------------------| 
B|--------------------------------------------------| 
G|--------------------------------------------------| 
D|--------------------------------------------------| 
A|--5---5-------5---5-------7---7-------7---7-------| 
D|--0-0-0-0-0-0-0-0-0-0-0-0-0-0-0-0-0-0-0-0-0-0-0-0-| 
pm    .   . . .   .   . . .   .   . . .   .   . . . 

E|--------------------------------------------------| 
B|--------------------------------------------------| 
G|--------------------------------------------------| 
D|--------------------------------------------------| x2 
A|--8---8-------8---8-------10--10------10--10------| 
D|--0-0-0-0-0-0-0-0-0-0-0-0-0-0-0-0-0-0-0-0-0-0-0-0-| 
pm    .   . . .   .   . . .   .   . . .   .   . . . 

(Chorus) 
(guitar 1) 
E|--------------------------------------------------------------------------| 
B|--------------------------------------------------------------------------| 
G|*-------------------------------------------------------------------------| 
D|*-0---0-------0---0-------3---3-------3---3-------3---3-------3---3-------| 
A|--0-0-0-0-0-0-0-0-0-0-0-0-3-3-3-3-3-3-3-3-3-3-3-3-3-3-3-3-3-3-3-3-3-3-3-3-| 
D|--0-0-0-0-0-0-0-0-0-0-0-0-3-3-3-3-3-3-3-3-3-3-3-3-3-3-3-3-3-3-3-3-3-3-3-3-| 
pm    .   . . .   .   . . .   .   . . .   .   . . .   .   . . .   .   . . . 

E|-------------------------------------------------------------------------| 
B|-------------------------------------------------------------------------| 
G|-------------------------------------------------------------------------| 
D|-5---5-------5---5-------8---8-------8---8-------0---0-------0---0-------| 
A|-5-5-5-5-5-5-5-5-5-5-5-5-8-8-8-8-8-8-8-8-8-8-8-8-0-0-0-0-0-0-0-0-0-0-0-0- 
D|-5-5-5-5-5-5-5-5-5-5-5-5-8-8-8-8-8-8-8-8-8-8-8-8-0-0-0-0-0-0-0-0-0-0-0-0- 
pm   .   . . .   .   . . .   .   . . .   .   . . .   .   . . .   .   . . . 

E|--------------------------------------------------| 
B|--------------------------------------------------| 
G|-------------------------------------------------*| 
D|-7-7-7-7-7-7-7-7-7-7-7-7-7-7-7-7-7-7-7-7-7-7-7-7-* 
A|-7-7-7-7-7-7-7-7-7-7-7-7-7-7-7-7-7-7-7-7-7-7-7-7--| 
D|-7-7-7-7-7-7-7-7-7-7-7-7-7-7-7-7-7-7-7-7-7-7-7-7--| 

(guitar 2: Makes variations) 
E|--------------------------------------------------------------------------| 
B|--------------------------------------------------------------------------| 
G|*-------------------------------------------------------------------------| 
D|*-------------------------3---3-------3---3-------3---3-------3---3-------| 
A|--5---5-------5---5-------3-3-3-3-3-3-3-3-3-3-3-3-3-3-3-3-3-3-3-3-3-3-3-3-| 
D|--0-0-0-0-0-0-0-0-0-0-0-0-3-3-3-3-3-3-3-3-3-3-3-3-3-3-3-3-3-3-3-3-3-3-3-3-| 
pm    .   . . .   .   . . .   .   . . .   .   . . .   .   . . .   .   . . . 

E|-------------------------------------------------------------------------| 
B|-------------------------------------------------------------------------| 
G|-------------------------------------------------------------------------| 
D|-5---5-------5---5-------8---8-------8---8-------------------------------| 
A|-5-5-5-5-5-5-5-5-5-5-5-5-8-8-8-8-8-8-8-8-8-8-8-8-5---5-------5---5-------| 
D|-5-5-5-5-5-5-5-5-5-5-5-5-8-8-8-8-8-8-8-8-8-8-8-8-0-0-0-0-0-0-0-0-0-0-0-0- 
pm   .   . . .   .   . . .   .   . . .   .   . . .   .   . . .   .   . . . 

E|--------------------------------------------------| 
B|--------------------------------------------------| 
G|-------------------------------------------------*| 
D|-7---7-------7---7-------7-7-7-7-7-7-7-7-7-7-7-7-*| 
A|-7-7-7-7-7-7-7-7-7-7-7-7-7-7-7-7-7-7-7-7-7-7-7-7--| 
D|-7-7-7-7-7-7-7-7-7-7-7-7-7-7-7-7-7-7-7-7-7-7-7-7--| 
		  

auto scroll beats size up size down change color hide chords drawings
tab show chords e-chords YouTube Clip e-chords hide all tabs e-chords go to top tab

share