Rammstein

home > Rammstein

Das Modell Tab

Rammstein

Difficulty: BeginnerBeginner

by Alex%2Dguitar

tuner correct add songbook print version text version save to e-mail
chordsukulelecavacokeyboardtabbassdrumsharmonicsflute Guitar Pro
chords

Das Modell

  		Tuning: Dropped D 
 
 
Verses: 
When he starts singing the first verse, you stop playing untill he stops singing.                                                
E|--------------------------------------------------- 
B|--------------------------------------------------- 
G|--------------------------------------------------- 
D|x-x-x-x-5-x-x-x-x-8-x-x-8-x-x-x-x-0-x-x-x-x-3-x-x-3 
A|x-x-x-x-5-x-x-x-x-8-x-x-8-x-x-x-x-0-x-x-x-x-3-x-x-3 
D|x-x-x-x-5-x-x-x-x-8-x-x-8-x-x-x-x-0-x-x-x-x-3-x-x-3  
 
After verses: 
 
E|-------------------------------------- 
B|-------------------------------------- 
G|-------------------------------------- 
D|/8--/7--/3-/3---/8--/7--/12----------- 
A|/8--/7--/3-/3---/8--/7--/12--9---10-12 
D|/8--/7--/3-/3---/8--/7--/12----------- 
 
You can also play it in normal tuning, like this: 
 
Verses: 
 
E|--------------------------------------------------- 
B|--------------------------------------------------- 
G|--------------------------------------------------- 
D|x-x-x-x-5-x-x-x-x-8-x-x-8-x-x-x-x-0-x-x-x-x-3-x-x-3 
A|x-x-x-x-5-x-x-x-x-8-x-x-8-x-x-x-x-0-x-x-x-x-3-x-x-3 
D|x-x-x-x-3-x-x-x-x-6-x-x-6-x-x-x-x---x-x-x-x-1-x-x-1 
 
After verses: 
 
E|-------------------------------------- 
B|-------------------------------------- 
G|-------------------------------------- 
D|/8--/7--/3-/3---/8--/7--/12----------- 
A|/8--/7--/3-/3---/8--/7--/12--9---10-12 
D|/6--/5--/1-/1---/6--/5--/10----------- 
 

	  

Search Paypal
auto scroll beats size up size down change color hide chords drawings
tab show chords e-chords YouTube Clip e-chords hide all tabs e-chords go to top tab