Rammstein

home > Rammstein

Das Alte Leid Tab

Rammstein

Difficulty: AdvancedAdvanced

by Alex%2Dguitar

tuner correct add songbook print version text version save to e-mail
chordsukulelecavacokeyboardtabbassdrumsharmonicsflute Guitar Pro
chords

Das Alte Leid

  		PM= Palm Muting 
~ = Vibrato 
 
Riff A 
E|--------------------------------| 
B|--------------------------------| 
G|--------------------------------| 
D|--------------------------------| 
A|-0h2-0h2--0h2-0h2-5-0-----------| 
D|-0h2-0h2--0h2-0h2-5-0-----------| 
PM 
 
Riff B          Fill 1 
E|--------------|----| 
B|--------------|----| 
G|--------------|-5~-| 
D|--------------|----| 
A|-0-0--0-0-0-0-|----| 
D|-0-0--0-0-0-0-|----| 
PM * *  * * * * 
 
Bridge (3:10) 
  /------3x----- 
E|---------------|---------------| 
B|---------------|---------------| 
G|---------------|---------------| 
D|---------------|---------------| 
A|-0-0--0-0--0-0-|-0-0--0-0--0-0-| 
D|-0-0--0-0--0-0-|-0-0--0-0--0-0-| 
PM * *  * *  * *   * *  * *  * 
 
Fill2 
E|---| 
B|---| 
G|---| 
D|---| 
A|-0-| 
D|-0-| 
 
Song structure: 
Drum Intro 
Riff A 8x 
Riff B 4x 
Fill1 
Riff B 4x 
Riff A 4x 
Riff B 4x 
Fill1 
Riff B 4x (let last note ring out) 
Riff A 18x 
Bridge  
... 
Fill2 
Riff A 22x (till end) 
 
 

	  

Search Paypal
auto scroll beats size up size down change color hide chords drawings
tab show chords e-chords YouTube Clip e-chords hide all tabs e-chords go to top tab