Raízes Rasta

Luz do Sol

Raízes Rasta

tabs

by  FILHO DO SOL

save to print version add songbook text version e-mail correct tuner
chordsukulelecavacokeyboardtabbassdrumsharmonicaflute Guitar Pro
close

there isn't a video lesson for this song

chords

Luz do Sol

	  		Intro:   
                      A          E       Bm   D             E       A 
|----------10-------------|9--------9--------|10p9---------------------- 
|-10h11h12---12-10----10--|--10-12----10-12--|-----9-------------------- 
|------------------11-----|------------------|-------9h11p9---------9--- 
|-------------------------|------------------|--------------12-10-7----- 
|-------------------------|------------------|-------------------------- 
|-------------------------|------------------|-------------------------- 
 
       E       A     D            E           D                              A         
|9--------9----12--|10p9--------------------------------|---------9------------- 
|--10-12----10-----|-----9--------------------7-7---7-7-|10h11h12---12-10----10- 
|------------------|-------9h11p9---------7---7-7---7-7-|-----------------11---- 
|------------------|--------------12-10-7---------------|----------------------- 
|------------------|------------------------------------|----------------------- 
|------------------|------------------------------------|----------------------- 

		  

Full key step upFull key step up
Half key step upHalf key step up
Half key step downHalf key step down
Full key step downFull key step down
hide glossary

See also:

tabs Chimarruts - Versos Simples tabs Scar Reef - Anjo Protetor tabs Rastaclone - Adeus (intro) tabs Acústico Reggae - Verdade tabs Ponto de Equilíbrio - Só Quero O Que É Meu - Intro tabs Casaca - Santo Antônio
e-chords

Other versions:

tabs Raízes Rasta - Luz do Sol tabs Caetano Veloso - Luz do Sol
auto scroll beats size up size down change color hide chords drawings
tab show chords e-chords YouTube Clip e-chords hide all tabs e-chords go to top tab

share