Raízes Rasta

home > Raízes Rasta

Campo minado Tab

Raízes Rasta

Difficulty: EasyEasy

by Filho+do+Sol

tuner correct add songbook print version text version save to e-mail
chordsukulelecavacokeyboardtabbassdrumsharmonicsflute Guitar Pro
chords

Campo minado

  		 
e|---------------------3-----------------------------| 
B|----4--4--4-3--4~~-6----4--4--4-6-4~~--------3--3--| 
G|--------------------------------------5--3~~-------| 
D|---------------------------------------------------| 
A|---------------------------------------------------| 
E|---------------------------------------------------| 
 
 
 
e|---------------------------------------------------| 
B|-3-----3----------3--3--3-4------------------------| 
G|----5-----3------------------3--5------------------| 
D|-------------5~~-----------------------------------| 
A|---------------------------------------------------| 
E|---------------------------------------------------| 
 
 

	  

Search Paypal
auto scroll beats size up size down change color hide chords drawings
tab show chords e-chords YouTube Clip e-chords hide all tabs e-chords go to top tab