Raising Cain

Halo 2

Raising Cain

tabs Beginner beginner

by  BARBRODOCK

save to print version add songbook text version e-mail correct tuner
chordsukulelecavacokeyboardtabbassdrumsharmonicaflute Guitar Pro
close

there isn't a video lesson for this song

chords

Halo 2

	  		standard tuning 
 
------------------------------------------------- 
------------------------------------------------- 
------------------------------------------777---- 
-x-x-x-3-----x-x-x-5-----x-x-x-7----x-x999777---- 
-x-x-x-3-----x-x-x-5-----x-x-x-7----x-x999555---- 
-x-x-x-1-----x-x-x-3-----x-x-x-5----x-x777------- 
 
 
repeat this part three times  
 
------------------------------------------------- 
------------------------------------------------- 
-9-9-xx-7-7-xx-5-5-xx-333555------------------------------------- 
-9-9-xx-7-7-xx-5-5-xx-333555------------------------------------ 
-7-7-xx-5-5-xx-3-3-xx-111333----------------------------------- 
------------------------------------------------- 

		  

auto scroll beats size up size down change color hide chords drawings
tab show chords e-chords YouTube Clip e-chords hide all tabs e-chords go to top tab

share