Raising Cain

Deck the halls

Raising Cain

tabs

by  BARBRODOCK

save to print version add songbook text version e-mail correct tuner
chordsukulelecavacokeyboardtabbassdrumsharmonicaflute Guitar Pro
close

there isn't a video lesson for this song

chords

Deck the halls

	  		the chords are easy and simple 
 
chords 
 
 
D                                 G        D  A    D 
deck the halls with bows of holly fa lalalala lalalala 
 
 
and so on and so forth threw out the whole song 
 
 
but that tabs are a little dificult 
 
------------------------------------------------ 
------------------------------------------------ 
-5-3-2------------------------------------------ 
-------5-3-5-7-3---5-7-9-5-7---5-3-2-3---------- 
------------------------------------------------ 
------------------------------------------------ 
 
 
------------------------------------------------ 
------------------------------------------------ 
-5-3-2---------------------7-9-10---9-7-5------- 
-------5-3-5-7-3----7-9-10---------------------- 
------------------------------------------------ 
------------------------------------------------ 
 
that gets dont threw thew whole song as well  
 
 
 
power chords just for a little fun for the nieghbors 
 
-------------------------|------------------------------- 
-------------------------|------------------------------- 
-7--5--4-----------------|------------------------------- 
-7--5--4--7--5--7--9--5--|--7--9--11--7--9----7--5--4--5- 
-5--3--2--7--5--7--9--5--|--7--9--11--7--9----7--5--4--5- 
----------5--3--5--7--3--|--5--7--9---5--7----5--3--2--3- 
                         | 
                         |------------------------------- 
                         |------------------------------- 
                         |---------9-11-12--11-9-7------- 
                         |-9-11-12-9-11-12--11-9-7------- 
                         |-9-11-12-7-9--10--9--7-5------- 
                         |-7-9--10----------------------- 
 
play this through the whole song as well  
 
and everything you see here is standard tuning 
 

		  

Full key step upFull key step up
Half key step upHalf key step up
Half key step downHalf key step down
Full key step downFull key step down
auto scroll beats size up size down change color hide chords drawings
tab show chords e-chords YouTube Clip e-chords hide all tabs e-chords go to top tab

share