Rainbow

Stargazer

Rainbow

tabs Beginner beginner

by  DRUMMER_COMETH

save to print version add songbook text version e-mail correct tuner
chordsukulelecavacokeyboardtabbassdrumsharmonicaflute Guitar Pro
close

there isn't a video lesson for this song

chords

Stargazer

	  		A true masterpiece from a totally incredible album! 
 
---------|---------------------------|----------|----------------------------- 
---------|---------------------------|----------|----------------------------- 
---------|---------------------------|----------|----------------------------- 
---------|---------------------------|---5-4----|-------5-4-2-4-2-0---0------- 
---------|---5-6-7---5-6-7---5-6-7---|-------5v-|-5-6-7-------------2---2-0--- 
---3-2-1-|-0-------0-------0---------|-0--------|---------------------------3- 
  intro/ main:                          1                                      
 
------|--------------------|-------------------------------------------------- 
------|--------------------|-------------------------------------------------- 
------|--------------------|-------------------------------------------------- 
------|-7b9r7-5-7-5--------|-------------------------------------------------- 
-0----|-------------7--5-7-|-------------------------------------------------- 
---3v-|----------------3-5-|-------------------------------------------------- 
        before singing:                                                        
 
----|----------|--------------|----------------------------------------------- 
----|----------|--------------|----------------------------------------------- 
----|----------|---4-----5-4--|----------------------------------------------- 
----|----------|--------------|----------------------------------------------- 
----|-----0-3--|---2-2-2-2-2--|----------------------------------------------- 
----|-2-3------|--------------|----------------------------------------------- 
      riff 2: Oh I see his face...                                             
 
--|-------|-----------|---------|-----------|--------------------------------- 
--|-------|-----------|---------|-----------|--------------------------------- 
--|-------|-----------|---------|-----------|--------------------------------- 
--|-------|-----------|---------|-----------|--------------------------------- 
--|-0-2-3-|-2-5-3-2-0-|---------|--3-2-0----|--------------------------------- 
--|-------|-----------|---------|--------3--|--------------------------------- 
   In the  heat of the... 2X       To see him fly...                           
 
 
High noon, oh I'd sell my soul for water 
Nine years worth of breakin' my back 
There's no sun in the shadow of the wizard 
See how he glides, why he's lighter than air? 
Oh I see his face! 
 
Where is your star? 
Is it far, is it far, is it far? 
When do we leave? 
I believe, yes, I believe 
 
In the heat and the rain 
With the whips and chains 
To see him fly 
So many die 
We built a tower of stone 
With our flesh and bone 
Just to see him fly 
But don't know why 
Now where do we go? 
 
Hot wind, moving fast across the desert 
We feel that our time has arrived 
The world spins, while we put his dream together 
A tower of stone to take him straight to the sky 
Oh I see his face! 
 
Where is your star? 
Is it far, is it far, is it far? 
When do we leave? 
Hey, I believe, I believe 
 
In the heat and the rain 
With the whips and chains 
Just to see him fly 
Too many die 
We built a tower of stone 
With our flesh and bone 
To see him fly 
But we don't know why 
Ooh, now where do we go 
 
All eyes see the figure of the wizard 
As he climbs to the top of the world 
No sound, as he falls instead of rising 
Time standing still, then there's blood on the sand 
Oh I see his face! 
 
Where was your star? 
Was it far, was it far 
When did we leave? 
We believed, we believed, we believed 
 
In heat and rain 
With the whips and chains 
To see him fly 
So many died 
We built a tower of stone 
With our flesh and bone 
To see him fly 
 
But why 
In all the rain 
With all the chains 
Did so many die 
Just to see him fly 
 
Look at my flesh and bone 
Now, look, look, look, look, 
Look at the tower of stone 
I see your rainbow rising 
Look there, on the horizon oh no, who's rising 
And I'm coming home, I'm coming home, I'm coming home 
 
Time is standing still 
You, give back my will 
Ooh ooh ooh ooh 
Going home 
I'm going home 
 
My eyes are bleeding 
And my heart is lead ahead 
But it's not home 
But it's not home 
Ooh 
 
Take me back 
You, give me back my will 
Ooh ooh ooh ooh 
 
Going home 
I'm going home 
 
My eyes are bleeding 
And my heart is lead ahead 
But it's not home 
But it's not home 
 
Take me back, take me back 
Back to my home ooh, ooh, ooh 
 

		  

See also:

tabs Slipknot - Duality(ver 2) tabs Slipknot - Surfacing tabs Rainbow - Long Live Rock N' Roll tabs Dream Theater - As I Am tabs Pantera - Hollow tabs Slipknot - The Blister Exists
e-chords

Other versions:

tabs Mother Love Bone - Stargazer tabs Rainbow - Stargazer tabs Nightwish - Stargazers
auto scroll beats size up size down change color hide chords drawings
tab show chords e-chords YouTube Clip e-chords hide all tabs e-chords go to top tab

share