Radwimps

Grand Escape

Radwimps

tabs

by  LINEKERS

save to print version add songbook text version e-mail correct tuner
chordsukulelecavacokeyboardtabbassdrumsharmonicaflute Guitar Pro
close

there isn't a video lesson for this song

chords

Grand Escape

	  		Intro 
e|---------------------------------------------------------------------------------|x3 
B|---------------------------------------------------------------------------------| 
G|-9--9--9--9----------------------------9--9--9--9--------------------------------| 
D|------------7/9--9--11--9--9--7--9--------------------7/9------------------------| 
A|---------------------------------------------------------7--7--11--9--7--7-------| 
E|---------------------------------------------------------------------------------| 

e|---------------------------------------------------------------------------------| 
B|------------------------------------------------------------9--7--5--5-----------| 
G|-9--9--9--9----------------------------9--9--8--9--8--9--9-----------------------| 
D|------------7/9--9--11--9--9--7--9-----------------------------------------------| 
A|---------------------------------------------------------------------------------| 
E|---------------------------------------------------------------------------------| 

Verse 
e|---------------------------------------------------------------------------------|x2 
B|--12-----------------------------------------------------------------------------| 
G|------9--9--9--9--11--11--11--13--9------9--9--9--9--11--9-----------------------| 
D|-------------------------------------9-------------------------------------------| 
A|---------------------------------------------------------------------------------| 
E|---------------------------------------------------------------------------------| 

e|---------------------------------------------------------------------------------| 
B|--12-----------------------------------------------------------------------------| 
G|------9--9--9--9--11--11--11--13--9--9-----9--9--11--9--11--13-------------------| 
D|----------------------------------------9----------------------------------------| 
A|---------------------------------------------------------------------------------| 
E|---------------------------------------------------------------------------------| 


e|---------------------------------------------------------------------------------| 
B|--12-----------------------------------------------------------------------------| 
G|------9--9--9--9--11--11--11--13--9------9--9--9--9--11--9--------9--11--9-------| 
D|-------------------------------------9-------------------------------------------| 
A|---------------------------------------------------------------------------------| 
E|---------------------------------------------------------------------------------| 

Pre-Chorus 
e|----------------------------|x3 |-------------| 
B|----------------------------|   |-------------| 
G|----------------------------|   |-------------| 
D|--9--7--6--6--7-------------|   |--9--7--6~---| 
A|-----------------7--9-------|   |-------------| 
E|----------------------------|   |-------------| 


Chorus 
e|---------------------------------------------------------------------------------| 
B|---------------------------------------12--12--12--10--9--7--9--10--10--9--7h----| 
G|--9--11--13--14--13--11--9--9--11---9--------------------------------------------| 
D|---------------------------------------------------------------------------------| 
A|---------------------------------------------------------------------------------| 
E|---------------------------------------------------------------------------------| 

e|-----------------------------------------------------------------------------------| 
B|---------------------------------------12--12--12--10--9--7--9--10--9--10--9--7----| 
G|--9--11--13--14--13--11--9--9--11---9--------------------------------------------9-| 
D|-----------------------------------------------------------------------------------| 
A|-----------------------------------------------------------------------------------| 
E|-----------------------------------------------------------------------------------| 


e|------------------------------------------------------------------------------------------| 
B|------------------------------------------------------------------------------------------| 
G|--9--8--9--9--9--11--11--11--13--13---9--8--9--8--9--11--9--9--9--9--11--11--11--13--13---| 
D|------------------------------------------------------------------------------------------| 
A|------------------------------------------------------------------------------------------| 
E|------------------------------------------------------------------------------------------| 

Outro 
e|-------------------|x4 
B|-------------------| 
G|---14--13--11--9---| 
D|-------------------| 
A|-------------------| 
E|-------------------| 


************************************ 

| | /  Slide up 
| ~  Vibrato 

************************************ 
		  

See also:

tabs Exist Trace - True tabs Nightmare - Tokyo Shounen tabs Mymp - Eternal Flame (solo ver 2) tabs Mymp - Get Me (intro) tabs Pillows - One Life tabs Abingdon Boys School - Shiosai
e-chords

Other versions:

tabs Radwimps - Grand Escape
auto scroll beats size up size down change color hide chords drawings
tab show chords e-chords YouTube Clip e-chords hide all tabs e-chords go to top tab

share with facebook