Queen

White Queen (as it began) Tab

Queen

Difficulty: EasyEasy

tuner correct add songbook print version text version save to e-mail
chordsukulelecavacokeyboardtabbassdrumsharmonicsflute Guitar Pro
close

there isn't a video lesson for this song

request
chords

White Queen (as it began)

(May)

  		 
três guitarras: 
  (0:00) 
|------|-19tr17--|-17tr15--|-15tr14--| 
|-<5>--|-15------|-15tr12--|-12tr10--| 
|-<12>-|-12tr11--|-11tr9---|--9tr7---| 
|-<5>--|---------|---------|---------| 
|------|---------|---------|---------| 
|------|-left----|-right---|-left----| 
 
guitarra acústica:        (inicio da voz) 
 (0:12)                   (0:18) 
|-------------0------2---|-3-2----2---|----------0-|----------0-|---2----| 
|---------3---------3----|-3-3----3---|-0-3----3-0-|----------0-|-0-3----| 
|-------0----------2-----|--------2---|-0-2----2-0-|--------2-0-|-0-2----| 
|-----0-----------0------|-0-0----0-2-|-0-0----0---|-5\0----2-2-|-0------| 
|-0h2--------------------|----------2-|------------|-5\0----2-2-|-2------| 
|------------------------|----------0-|------------|-3----------|--------| 
        
(0:43) 
|------------------------------------------------------------------|----| 
|------1---0-----------1---0-------------------------1-------------|----| 
|--------------2---------------2-------2---2---2-------4-------2---|-0/-| 
|----2---2---2---2---2---2---2---2---2---0-------1-------2---2---2-|-/0-| 
|--0-----------------------------------------3---------------------|----| 
|------------------3---------------1---------------1-------0-------| 2X | 
 
|-----------------0-------------5-----5---------------------------------------| 
|-------------0---1---3-------5-----5---5-----3-------1-------3---------------| 
|-----2-----------0---0-----5---------------2---2-----------2---2-----2...----| 
|---2---2---0---0-2---0---7---------------0---------2---2-0---------2---------| 
|-0---------------3---2-----------7---------------0---------------0-----------| 
|---------3-------------------------------------------------------------------| 
 
duas guitarras: 
(1:35) 
|-3--2-----2--0-----3--2-----0--0-----3--2-----0--0-----3--2---| 
|-3--3-----3--0-----3--3-----0--0-----3--3-----0--0-----3--3---| 
|-4--2-----2--0-----4--2-----2--0-----4--2-----2--0-----4--2---| 
|-5--0-----0--2-----5--0-----2--2-----5--0-----4--2-----5--0---| 
|----------------------------------------------0--2------------| 
|----------------------------------------------0--0------------| 
guitarra acústica: 
 (1:59) 
|-----------------------------------------------------------------|----| 
|-----1---0-----------1---0---------------0---------1-------------|----| 
|-------------2---------------2-------2-------2-------4-------2---|-0/-| 
|---2---2---2---2---2---2---2---2---2---0-------1-------2---2---2-|-/0-| 
|-0-----------------------------------------3---------------------|----| 
|-----------------3---------------1---------------1-------0-------| 2X | 
 
  Am    Dm/E  A7  Dm      F7       B B/A Gm Gm7 E4 E 
?|-------------0-------1-------1-----| 
?|---------3---2---------------------| 
?|-2---2---2-----2---2---2---2---2---| 
?|---2---2---2-----0-------1---------| 
?|-0-------0-------------------------| 
?|-----------------------------------| 
 
guitarra acústica escondido no solo: 
|------------------|------------------|-----------------|-------------0---| 
|----0h1------0----|-----0h1------0---|-----1-------0---|-----1-----------| 
|-2-----2---2--2-2-|--------2---2--22-|---2---2---2--222|---2---2---2---2-| 
|---2------2-2--2--|---2-----2--------|-----------------|-1-------2-------| 
|---------0--------|------------------|-----------------|-----------------| 
|------------------|-3--------3-------|-1-------1-------|-----------------| 
 
solo acústico: 
(2:50) 
|--------------------------------------------------------------| 
|--------------------------------------------------------------| 
|--------------------------------------------------------------| 
|-7----11r9-7-7-7-7vvvv---10r9-7-9-10-12p10-9-10-9hp---9-7-----| 
|----------------------------------------------------------7v--| 
|--------------------------------------------------------------| 
 
|-----------------------------------------------------------| 
|-----------------------------------------___---------------| 
|-7-b8-b9-9r7---7-5hp---4-5-4hp---5p4-5-7-9r7p5---7-5-7/9---| 
|-----------------------------------------------------------| 
|-----------------------------------------------------------| 
|-----------------------------------------------------------| 
 
|------------------------------------___________-------___________-------| 
|---------8---8-10-8/10---10/12---12-12h13p12p10-12-13-12h13p12p10-12-10-| 
|-9/11-11----------------------------------------------------------------| 
|------------------------------------------------------------------------| 
|------------------------------------------------------------------------| 
|------------------------------------------------------------------------| 
 
|-----------------------------------------------------------------| 
|-------------------x---------------------------------------------| 
|-9p7(\5)-7p5-7p5v--x---5-7-8-8p7-8p7-8p7p5-7p5\4-5---4-2-4-0-2...| 
|-----------------------------------------------------------------| 
|-----------------------------------------------------------------| 
|-----------------------------------------------------------------| 
 
guitarra acústica 2: 
|-12r10p8-7-8-7h8p7----------------------------------------------------------| 
|-------------------10-------------------------------------------------------| 
|----------------------9-7----------------5-7-5-5-7b9---b9-b9-b9-b9-b9r7-5-7-| 
|--------------------------10p9-10-5-7---------------------------------------| 
|----------------------------------------------------------------------------| 
|----------------------------------------------------------------------------| 
 
|------------------------------------------------------------------------| 
|------------------------------------------------------------------------| 
|--7p5-5-5-5-5\4-4-4-4\2---2---5r4p2-4p2-4-4b-b5-b5-b5-b5-b5r4p2-5r4p2---| 
|------------------------------------------------------------------------| 
|------------------------------------------------------------------------| 
|------------------------------------------------------------------------| 
 
|-----------------------------------------------------| 
|-_____---_____-----_____-------_____-------_____-----| 
|-5r4p2-4-5r4p2-4-5-4b5r4-2-4-5-4b5r4-2-4-5-4r5r4p2---| 
|-----------------------------------------------------| 
|-----------------------------------------------------| 
|-----------------------------------------------------| 
 
duas guitarras 
(3:28) 
|---------------------------------| |-----------------------5-7-| 
|-10---10---10-8-7--3-------------| |---------------4-5-7-8-----| 
|-11---11---11-7-2--2---2-4--2-4--| |---------4-6-8--11---------| 
|-----------------------4-2--1----| |---4-5-7-------------------| 
|---------------------------------| |-7-------------------------| 
|------------------------------0--| |---------------------------| 
 
|---------------------------12b13---b13__r12p10-12v---10--| 
|-12b13v__r12p10-12vvv-10---------------------------------| 
|---------------------------------------------------------| 
|---------------------------------------------------------| 
|---------------------------------------------------------| 
|---------------------------------------------------------| 
 
|---------------------------------------------------------------| 
|-18b20v--17-15------------17b18--r17p15h17--18-17h18hp-15-17v--| 
|---------------17-15vv-----------------------------------------| 
|---------------------------------------------------------------| 
|---------------------------------------------------------------| 
|---------------------------------------------------------------| 
 
... 
guitarra acústica: 
 (4:07) 
|-2--0--------------------------0---3----3p2------0-----------------------0--| 
|-3--0-----0--0----------3---3--0---3--3----3-----0--------3------------0----| 
|-2--0-----0--0-------0--2------0---0--------2-2--0---0----2----------1------| 
|-0--2-----4--4p2-0---0--0---0--2---0--0-------0--2---0-0--0--------2--------| 
|----2--------------2-2-------------------------------5------4\---2----------| 
|----0----------------3--2----------------------------3-2-------0------------| 
 
_______________________________________________________ 
Contribuição: Taino Vieira([email protected]) 

	  

Full key step upFull key step up
Half key step upHalf key step up
Half key step downHalf key step down
Full key step downFull key step down
Search Paypal
auto scroll beats size up size down change color hide chords drawings
tab show chords e-chords YouTube Clip e-chords hide all tabs e-chords go to top tab

share with facebook