Queen

The Show Must Go On Tab

Queen

Difficulty: AdvancedAdvanced

by europeu

tuner correct add songbook print version text version save to e-mail
chordsukuleleukulelecavacokeyboardtabbassdrumsharmonicsflute Guitar Pro
close

there isn't a video lesson for this song

request
chords

The Show Must Go On

Year: 1991 - Album: Classic Queen

(Queen)

  		first solo 
|---------------------------------------------| 
|---------------------------------------------| 
|-14----------14--------16-------14-----------| 
|----(16)b18------b18--------b18----b18-b18---| 
|---------------------------------------------| 
|----------------   let ring    --------------| 

|----------------------------------________-------------14-15-17-b19---| 
|----------------------------14-15-14h15p14----14-15-17----------------| 
|-16-14----14-16p14----14-16----------------16-------------------------| 
|-------16----------16-------------------------------------------------| 
|----------------------------------------------------------------------| 
|----------------------------------------------------------------------| 
                                  ________________________  
|-21-b22rbrbr21p19-b22---21----19-21p19-------19----19--------------| 
|---------------------------------------21p19----22----22b24---22---| 
|-------------------------------------------------------------------| 
|-------------------------------------------------------------------| 
|-------------------------------------------------------------------| 
|-------------------------------------------------------------------| 

|-15------14-----12------10---9----7--------| 
|-b20-----b19----b17-----b15--b14--b12...---| 
|-------------------------------------------| 
|-------------------------------------------| 
|-------------------------------------------| 
|-------------------------------------------| 

second solo 
|-17b19---17b19---17b19---| 
|-------------------------| 
|-------------------------| 
|-------------------------| 
|-------------------------| 
|-------------------------| 

|---------------_____-_____-------------14-15-17-b19r17b19vv--| 
|------14-15-14-15p14-15p14----14-15-17-----------------------| 
|-\/16----------------------16--------------------------------| 
|-------------------------------------------------------------| 
|-------------------------------------------------------------| 
|-------------------------------------------------------------| 

|-14-------17b19----17b19----b19v--------22b24-22-19-22-19-21-19----------| 
|----17-15-------------------------------------------------------22-b24v--| 
|-------------------------------------19----------------------------------| 
|-------------------------------------------------------------------------| 
|-------------------------------------------------------------------------| 
|-------------------------------------------------------------------------| 

|-----------------------| 
|-20-19-----------------| 
|-------21-19-21v__\----| 
|-----------------------| 
|-----------------------| 
|-----------------------| 

PD 





Bass Guitar Tab 
--------------- 


|------------16p14\12----| 
|------------------------| 
|-(2)--------------------| 
|------------------------| 

verse 
                   *                        * 
|-------|-191816-------------------------12/14____\12--------------| 
|-------|-------1917___\(16)-12--------12-------------12-----------| 
|-2-----|-----------------------10-----------------------10---9----| 
|-------|----------------------------------------------------------| 

  *                    *                   * 
|-----9__/11__\9----------------11-------11----------| 
|---9-----------9------------11--------11------------| 
|-7--------------7____/9-------------------7____/(14)| 
|----------------------------------------------------| 

  *       *        *          *          *         *               * 
|---------4-------------------12------11-9-----9-----------11--------------| 
|-------4------------------12-------------------9-------11------11---------| 
|-2----------------10----------------------------789--------------97-------| 
|--------------------------------------------------------------------------| 

Chorus 
     *       *       *        *        *        *        *        *         * 
|12\------------------------------------------------------------------------| 
|---------------------------------------------------------------------------| 
|----2-------2-------2------222------20------------------------------------2| 
|--------------------------------------3------3-3--------3------3-3---3---3-0 

  *               *               *               *               * 
|-----------------------------------------9-----9--------------------------| 
|---------------------------------------9--------9----------------9____\---| 
|---------------------------------7----------------------------------------| 
|-0-0-0-0-0-0-0-0-2-2-2-2-2-2-2-2-----------------7-7-7-7-7-7-7-7----------| 

verse 
  *               *               *               * 
|-----------------------------------------------------------------| 
|-----------------------------------------7_----------------------| 
|-4-----4-4-4-4---4-------4---4674------7___----7-----------------| 
|-----------------------4---------5---------------5-----5-5---4---| 

  *               *               * 
|------------------------------------------------| 
|-------------4--4--------6----4-----------------| 
|---------------4-------6-------64---------------| 
|-2-----2-2-------4---------------2-------2------| 

  *               *               *               * 
|-----------------------------------------------------------------| 
|-----------------------------------------------------------------| 
|-4-------4-------4-4-4---4-4-2-2-0-0-0-0-0-0-0-0-0-0-0-0-0-0-----| 
|-------------------------------------------------------------4-4-| 

  *               *               *               * 
|-----------------------------------------------------------------| 
|---------------------------------4-------------------------------| 
|-----------------------------------------------------------------| 
|-2-2-2-2-2-2-2-2-4-4-4-4-4-4-4-4-------2-2---2-2-000000000-------| 

Chorus 
  *               *               *               *                * 
|------------------------------------------------------------------| 
|-------------------------------------------------5-/9-75----------| 
|-2-------2-----222-4-5-4-2-----20-------------------------75----5-| 
|---------------------------------3---3-3-3---3-33-----------753/--0 

  *               *               * 
|-------------------------------------------------| 
|-------------------444--h4-------222-------------| 
|-------2-----2---------4---------------22--------| 
|-0-------0-----002-----------------------0-------| 

solo 
  *               *               *               * 
|-44------44--44--------------------------------------------------| 
|-----------------------44----------5-5-----------5---------------| 
|---2---2---2---22224455--55442200--------------5-----------------| 
|---------------------------------3-----333-3-------3-3-3-3-3-2-2-| 

  *               *               * 
|-------------------------------------------------| 
|-------------------------------------------------| 
|-----------------------------------------7-------| 
|-0-0-0-0-0-0-0-0-2-2-------------0---------------| 

"My soul is ..." 
  *               *               *               * 
|-----------------------------------------------------------------| 
|---------3-------------------------------3-----------------------| 
|-------------------------------------------------------------7-5-| 
|-1-----1-----1-1-0---0---5---3---1---------------0---0-0-5-------| 

  *               * 
|-------------------------------| 
|-------------------------------| 
|-4-------4---4-4-55555555------| 
|------------5-5-5--------------| 

Chorus 
  *               *               *               * 
|-----------------------------------------------------------------| 
|-------------------------------------5-------5-------5-----------| 
|-2-2---2-2-2-2-2-2-2-2-2-2-2-5-2---------------------------------| 
|---------------------------------3-3---3-3-3---3-3-3---3-3-3-2-2-| 

  *               *               * 
|-------------------------------------------------| 
|-------0-2---20------------------2---------------| 
|-----02--------20----------------------2---------| 
|-0-0-------------2-2-2-2-2-2-2-2---------0-------| 

solo 
  *               *               *               * 
|-4---------------42-2442-42-27-----------------------------------| 
|-------------------4----4--4--750----5-------5-------5-----5-----| 
|---2-2-2-2-2-2-2-------------------------------------------------| 
|---------------------------------3-----333-3---3-3-3---333---2-2-| 

  *               *               *               *               * 
|-----------------------------------------------------------------99999999---| 
|----------------------------------------------------------------------------| 
|--------/7-7-7__\--------9-9-9-9----------------/7--------------------------| 
|-0---0-----------2-2-2-2---------0------------------------------------------| 


|------| 
|------| 
|-2----| 
|------| 

Tr: PD, 1999 






backing vocals 

 show must go  o - o - on,  show must go o - o - on 
|-10---10--10--10--9---7------10--10--10-10--9---7--| 
|-12---12--12--12--10--7------12--12--12-12--10--8--|lead vocal 
|-11---11--11--11--9---7------11--11--11-11--9---7--| 
|---------------------------------------------------| 
|---------------------------------------------------| 
|---------------------------------------------------| 

 Oooo... 
|-7--7-6-7----| 
|-8--7-7-8----| 
|-9--6-6-9...-| 
|-------------| 
|-------------| 
|-------------| 

this last one is arranged for three voices 
  on with the on with the show 
|-----------------------------| 
|-5---3----2---5---3---2---3--| 
|-4---4----4---3---3---3---4--| 
|-5---5----5---5---5---5---5--| 
|-----------------------------| 
|-----------------------------| 

Tr: PD 
	  

Search Paypal
auto scroll beats size up size down change color hide chords drawings
tab show chords e-chords YouTube Clip e-chords hide all tabs e-chords go to top tab

share with facebook