Quadron

Hey Love (acoustic)

Quadron

tabs

by  JESSGOMES

save to print version add songbook text version e-mail correct tuner
chordsukulelecavacokeyboardtabbassdrumsharmonicaflute Guitar Pro
close

there isn't a video lesson for this song

chords

Hey Love (acoustic)

	  		
Intro 

e |---1-----0--------x-----| 
B |---1-----1--------5-----| 
G |---2-----2---or---5-----| 
D |---3-----2--------5-----| 
A |---3-----0--------x-----|     
E |---1-----0--------5-----| 

verse 1 

e |---5-----0--------x-----| 
B |---6-----1--------5-----| 
G |---7-----2--------5-----| 
D |---7-----2---or---5-----| 
A |---5-----0--------x-----|     
E |---x-----0--------5-----| 

Hey love, what's going on in here'  
You're ruthless like a stone  
Hey love, why you don't seem to care'  
It's to you I belong  
Trying my best not to make this an insult  
But blaming you I despair  
Hey love, what's going on in here'  
You brutalize my soul  

Chorus 

e |---x----1----x----x----x---| 
B |---3----1----5----10---5---| 
G |---3----2----5----10---5---| 
D |---3----3----5----10---5---| 
A |---x----3----x----10---x---|          
E |---3----1----5----10---5---| 

Promise the best is yet to come  
Oh, please tell me the truth  
When will the two of us be one'  
Oh, please tell me the truth  
So I can prove that I'm the one  
I'll prove that I'm the one  
I'll prove that I'm the one  
I'll prove  
Oh, please tell me the truth  
So I can prove that I'm the one  

verse 2 

e |---5-----0--------x-----| 
B |---6-----1--------5-----| 
G |---7-----2--------5-----| 
D |---7-----2---or---5-----| 
A |---5-----0--------x-----|     
E |---x-----0--------5-----| 

Hey love, I've been a sad affair  
And restless for your charm  
Hey love, do you really think it's fair'  
This search, it's been so long  
Crying for reasons, and try to believe  
That I'm too young to fall in love  
But hey love, what's going on in here'  
You brutalize my soul  

Chorus  

Bridge 

e |--x----5-----x----------| 
B |--3----6-----5----------| 
G |--3----7-----5----------| 
D |--3----7-----5----------| 
A |--x----5-----x----------|     
E |--3----x-----5----------| 

But if you really want my life  
You got to show me  
Only me waiting in the dark for you  

Chorus 

Outro 

e |---x----1----x----x----x---| 
B |---3----1----5----10---5---| 
G |---3----2----5----10---5---| 
D |---3----3----5----10---5---| 
A |---x----3----x----x----x---|          
E |---3----1----5----10---5---| 
		  

See also:

tabs Ira! - Poço de Sensibilidade (Solo - Acustico Mtv) tabs Deep Purple - Gypsy Kiss tabs Ira! - Envelheço na Cidade (intro) tabs Deep Purple - Smoke on the Water (solo) tabs Ira! - Eu Quero Sempre Mais (Com Pitty, intro) tabs Ira! - Prisão das Ruas
e-chords

Other versions:

tabs Jason Mraz - Hey Love tabs Quadron - Hey Love (acoustic)
auto scroll beats size up size down change color hide chords drawings
tab show chords e-chords YouTube Clip e-chords hide all tabs e-chords go to top tab

share