Pvris

You And I Stripped

Pvris

tabs

by  VICTBORGES

save to print version add songbook text version e-mail correct tuner
chordsukulelecavacokeyboardtabbassdrumsharmonicaflute Guitar Pro
close

there isn't a video lesson for this song

chords

You And I Stripped

	  		
Intro/Verse 

E|-------------------------| 
B|-------------------------| 
G|-6--10---3---6--10-------| (x7) 
D|-------------------------| 
A|-------------------------| 
D|-8--11---4---8--11---6---| 


Chorus 

E|----------------------------------------------------------------------| 
B|----------------------------------------------------------------------| 
G|--3---3---3---3---6---6---6---6----10----10----10---10--5--5---5---5--| 
D|----------------------------------------------------------------------| (x2) 
A|----------------------------------------------------------------------| 
D|-4---4---4---4---8---8---8---8---11---11---11---11---6---6---6---6----| 


Post-Chorus 

E|--9---13---6---9---13---8------------| 
B|-------------------------------------| 
G|-------------------------------------| 
D|--8---11---4---8---11---6------------| (x2) 
A|-------------------------------------| 
D|-------------------------------------| 


verse 2 

E|--------------------------------------| 
B|--------------------------------------| 
G|-6--10---3---6--10---5----------------| (x4) 
D|--------------------------------------| 
A|--------------------------------------| 
D|-8--11---4---8--11---6----------------| 


Chorus 

E|----------------------------------------------------------------------| 
B|----------------------------------------------------------------------| 
G|--3---3---3---3---6---6---6---6----10----10----10---10--5--5---5---5--| 
D|----------------------------------------------------------------------| (x2) 
A|----------------------------------------------------------------------| 
D|-4---4---4---4---8---8---8---8---11---11---11---11---6---6---6---6----| 


Post-Chorus 

E|--9---13---6---9---13---8----------------------------------------------| 
B|-----------------------------------------------------------------------| 
G|-----------------------------------------------------------------------| 
D|--8---11---4---8---11---6----------------------------------------------| (x2) 
A|-----------------------------------------------------------------------| 
D|-----------------------------------------------------------------------| 


Bridge 

E|----------------------------------------------------------------------| 
B|----------------------------------------------------------------------| 
G|--3---3---3---3---11---11---11---11----6---6---6---6---5---5---5---5--| 
D|----------------------------------------------------------------------|  (x2) 
A|----------------------------------------------------------------------| 
D|-4---4---4---4---13---13---13---13---8---8---8---8---6---6---6---6----| 

E|------------------------------------------------------------------------------------| 
B|------------------------------------------------------------------------------------| 
G|--3---3---3---3---11---11---11---11----6---6---6---6---6---6---6---6----------------| 
D|------------------------------------------------------------------------------------| 
A|------------------------------------------------------------------------------------| 
D|-4---4---4---4---13---13---13---13---8---8---8---8---8---8---8---8------------------| 


E|------------------------------------------------------------------| 
B|------------------------------------------------------------------| 
G|-3--11--6---------------------------------------------------------| 
D|------------------------------------------------------------------|    (x2) 
A|------------------------------------------------------------------| 
D|-4--13--8---------------------------------------------------------| 


Chorus 

E|----------------------------------------------------------------------| 
B|----------------------------------------------------------------------| 
G|--3---3---3---3---6---6---6---6----10----10----10---10--5--5---5---5--| 
D|----------------------------------------------------------------------| (x2) 
A|----------------------------------------------------------------------| 
D|-4---4---4---4---8---8---8---8---11---11---11---11---6---6---6---6----| 


Outro 

E|---6----9----13---11-----------------------------------------| 
B|---6----9----14---13-----------------------------------------| 
G|---x-- 10----15---13-----------------------------------------| 
D|---8---------------------------------------------------------| 
A|-------------------------------------------------------------| 
D|-------------------------------------------------------------| 


E|---6----9----13------------------------------------------| 
B|---6----9----14------------------------------------------| 
G|---x-- 10----15------------------------------------------| 
D|---8-----------------------------------------------------| 
A|---------------------------------------------------------| 
D|---------------------------------------------------------| 


************************************ 
| x  Dead note 
************************************ 
		  

auto scroll beats size up size down change color hide chords drawings
tab show chords e-chords YouTube Clip e-chords hide all tabs e-chords go to top tab

share