Pvris

Waking Up (acoustic)

Pvris

tabs

by  ALEFFEDERICO

save to print version add songbook text version e-mail correct tuner
chordsukulelecavacokeyboardtabbassdrumsharmonicaflute Guitar Pro
close

there isn't a video lesson for this song

chords

Waking Up (acoustic)

	  		Verse1 
|----------------------------------------------------| 
|----10--9-7---10--9-7---3---10--9-7---10--14---7----| 
|----------------------------------------------------|  x2 
|----------------------------------------------------| 
|----9---7-5---9---7-5---2---9---7-5---9---12---5----| 
|----------------------------------------------------| 

Pre-Chorus 
|----------------------------------------------------| 
|-7~--3~---------------------------------------------| 
|----------------------------------------------------| 
|----------------------------------------------------| 
|-5~--2~---------------------------------------------| 
|----------------------------------------------------| 

Chorus 

|-------------------------------------------------------------------------------| 
|---7----3----------------------------------------------------------------------| 
|------------------------------------------------------------------6------------| 
|--------------7----7---4------7----6----4-----7---7----4-----7----7---4--------| 
|---5----2-----9--------5------9----7----5-----9--------5-----9----7---5--------| 
|-------------------9------------------------------9----------------------------| 

Sound at background 

|-----------------------------------| 
|---10~--9~--7~----10~--12~---7~----| 
|-----------------------------------| 
|-----------------------------------| 
|-----------------------------------| 
|-----------------------------------| 


After Chorus 
|----------------------------------------------------| 
|-10--9--7---10--14--7-------------------------------| 
|----------------------------------------------------| 
|----------------------------------------------------| 
|-9---7--5---9---12--5-------------------------------| 
|----------------------------------------------------| 



Verse2 
|--------------------------------------------------------------------------------| 
|--------------------------------------------------------------------------------| 
|--------------7---------------7----------------7---------6----------------------| 
|---7---6--4---------7---6--4--------7---6--4---------7-------4~~----------------| 
|---9---7--5---------9---7--5--------9---7--5---------9---7---5~~----------------| 
|--------------7---------------7----------------7--------------------------------| 


Pre-Chorus 
|----------------------------------------------------| 
|-----3~---------------------------------------------| 
|----------------------------------------------------| 
|-4~-------------------------------------------------| 
|-5~--2~---------------------------------------------| 
|----------------------------------------------------| 

Chorus 

|-------------------------------------------------------------------------------| 
|-------------------------------------------------------------------------------| 
|-------------------------------------------------------6-----------------------| 
|---7----7---4------7----6----4-----7---7----4-----7----7---4~------------------| 
|---9--------5------9----7----5-----9--------5-----9----7---5~------------------| 
|--------9------------------------------9---------------------------------------| 

Sound at background 

|------------------------------------------------| 
|------------------------------------------------| 
|----------------------6-------------------------| 
|---7---6---4------7-------4---------------------| 
|---9---7---5------9---7---5---------------------| 
|------------------------------------------------| 


After Chorus 
|----------------------------------------------------| 
|-10--9--7---10--14--7-------------------------------| 
|----------------------------------------------------| 
|----------------------------------------------------| 
|-9---7--5---9---12--5-------------------------------| 
|----------------------------------------------------| 


Verse3 
|--------------------------------------------------------------------| 
|--------------------------------------------------------------------| 
|--------------7---------------7----------------7---------6----------| 
|---7---6--4---------7---6--4--------7---6--4---------7-------4------| 
|---9---7--5---------9---7--5--------9---7--5---------9---7---5------| 
|--------------7---------------7----------------7--------------------| 


|---------------------------------------------------------------------| 
|---------------------------------------------------------------------| 
|----------------------7-------------------------------7~-------------| 
|---4---6---7------4------7------4---6---7-----4---6------------------| 
|---5---7---9------5------9------5---7---9-----5---7------------------| 
|----------------------7-------------------------------7~-------------| 


Chorus 
|----------------------------------------------------------------------| 
|----------------------------------------------------------------------| 
|-------------------------------------------------------6--------------| 
|---7----7---4------7----6----4-----7---7----4-----7----7---4~---------| 
|---9--------5------9----7----5-----9--------5-----9----7---5~---------| 
|--------9------------------------------9------------------------------| 

Solo 
|--------------------------12-12-12-12--11-11-11---------------9-----------------------| 
|-10----------------------------------------------10----------9-9----------------------| 
|----11--------------13\11---------------------------11--------------------------------| 
|-------11-11--11/14------------------------------------11-11-----11--11-11-11--9-9-9--| 
|--------------------------------------------------------------------------------------| 
|--------------------------------------------------------------------------------------| 

Sound at Backround 
|----------------------------------------------------------------------| 
|----------------------------------------------------------------------| 
|-------------------------------------------------------6--------------| 
|---7----7---4------7----6----4-----7---7----4-----7----7---4~---------|(x2) 
|---9--------5------9----7----5-----9--------5-----9----7---5~---------| 
|--------9------------------------------9------------------------------| 


Solo(End) 
|--------------------------12-12-12-12--11-11-11---------------9-----------------------| 
|-10----------------------------------------------10----------9-9----------------------| 
|----11--------------13\11---------------------------11--------------------------------| 
|-------11-11--11/14------------------------------------11-11-----11--11-11-11--9-9-9--|(x2) 
|--------------------------------------------------------------------------------------| 
|--------------------------------------------------------------------------------------| 
		  

auto scroll beats size up size down change color hide chords drawings
tab show chords e-chords YouTube Clip e-chords hide all tabs e-chords go to top tab

share