Pvris

Let Them In

Pvris

tabs

by  MARCNAGEL

save to print version add songbook text version e-mail correct tuner
chordsukulelecavacokeyboardtabbassdrumsharmonicaflute Guitar Pro
close

there isn't a video lesson for this song

chords

Let Them In

	  		 

Pre-Chorus 

Let the notes ring for 2-3 seconds. 

D|--10------10------10------8------| 
A|------10------10------10-----10--| 
F|---------------------------------| 

Chorus: 

D|-----------------------------------| 
A|-----------------------------------| 
F|--8888-----------------------------| (x2) 
C|--8888-(x4)--5555-------3333-------| 
G|--6666-------5555-(x2)--3333-(x2)--| 
C|-------------5555-------3333-------| 

D|----------------------------------------| 
A|----------------------------------------| 
F|--8888------5555------------------------| 
C|--8888-(x3)-5555--5555-------3333-------| 
G|--6666------3333--5555-(x2)--3333-(x2)--| 
C|------------------5555-------3333-------| 

D|---------------------------| 
A|---------------------------| 
F|--5555---------------------| When the Chorus is played the second and third time, 
C|--5555-(x4)--1111-------3--| the last power chord is played 8 times and palm mute 
G|--3333-------1111-(x2)--3--| the last strum. 
C|-------------1111-------3--| 
                          * 

Bridge: 

D|-----------17----------------17-13--| 
A|-----13-15----(x8)-----13-15--------| When starting the Chorus after this part, 
F|--15----------------15--------------| start with the power chord at the fifth fret. 
C|------------------------------------| 

The song in order: 
- Pre-Chorus 
- Chorus 
- Pre-Chorus 
- Chorus 
- Bridge 
- Chorus 
		  

auto scroll beats size up size down change color hide chords drawings
tab show chords e-chords YouTube Clip e-chords hide all tabs e-chords go to top tab

share