Puffy Amiyumi

Planet Tokyo

Puffy Amiyumi

tabs Easy easy

by  WEEZER PILLOWS

save to print version add songbook text version e-mail correct tuner
chordsukulelecavacokeyboardtabbassdrumsharmonicaflute Guitar Pro
close

there isn't a video lesson for this song

chords

Planet Tokyo

	  		planet tokyo! 
 
STANDARD TUNING 
 
intro / verse 
|--------------------| 
|--------------------| 
|--2-2-2-2--3-2-3-2--| 
|--3-3-3-3--3-3-3-3--|x4 
|--------------------| 
|--------------------| 
 
Fill 
|---------------------------| 
|---------------------------| 
|--------------------8-8-8--| 
|--8-8-8-8-8--6-6-6--8-8-8--| 
|--8-8-8-8-8--6-6-6--6-6-6--| 
|--6-6-6-6-6--4-4-4---------| 
 
Chorus - these chords are played 
|--1--|--5--|--6--|--3--| 
|--1--|--5--|--6--|--3--| 
|--2--|--6--|--6--|--4--| 
|--3--|--7--|--8--|--5--| 
|--3--|--7--|--8--|--5--| 
|--1--|--5--|--6--|--3--| 
 
 ~enjoy~ 
  ___ 
 |   | 
 |___|       /\    \  / 
 |          /--\    \/ 
 |    uffy /    \mi / umi 
 
 
		  

See also:

tabs Misc Cartoons - Hey! Arnold Theme tabs Misc Cartoons - 12th Street Rag From Spongebob tabs Misc Cartoons - Tooki Kioku tabs Misc Cartoons - Avatar Last Airbender - Little Soldier Boy tabs Misc Cartoons - One Punch Man Theme tabs Misc Cartoons - Death Note - L No Nakama
e-chords

Other versions:

tabs Puffy Amiyumi - Planet Tokyo
auto scroll beats size up size down change color hide chords drawings
tab show chords e-chords YouTube Clip e-chords hide all tabs e-chords go to top tab

share