Puffy Amiyumi

Destruction Pancake

Puffy Amiyumi

tabs

by  WEEZER PILLOWS

save to print version add songbook text version e-mail correct tuner
chordsukulelecavacokeyboardtabbassdrumsharmonicaflute Guitar Pro
close

there isn't a video lesson for this song

chords

Destruction Pancake

	  		This is a Japanese pop band. They have their own show 
on Cartoon Network. I laughed when i first heard the  
name of this song. 
 
STANDARD TUNING 
 
intro 
|--------------------------------------------| 
|--------------------------------------------| 
|--999999999999-11-11-11-11-11-11-777777-----| 
|--999999999999-11-11-11-11-11-11-777777-----|x2 
|--777777777777--9--9--9--9--9--9-555555-----| 
|--------------------------------------------| 
 
Intro 2 
|--------------------------------------------| 
|----------10-9-----------------10-9-12-/-5--| 
|-1/9-9~-7------7-9~~~-1/9-9~-7--------------| 
|--------------------------------------------| 
|--------------------------------------------| 
|--------------------------------------------| 
 
Verse 
|------------------| 
|------------------| 
|--9-9---7-7-------| 
|--9-9---7-7--7-7--|x4 
|--7-7---5-5--7-7--| 
|-------------5-5--| 
 
PreChorus 
|-------0---------0-----| 
|--0---------0----------| 
|----2~---2~---2~---3~--| 
|-----------------------|x2 
|-----------------------| 
|-----------------------| 
 
Chorus 
|-----------------------------------| 
|-----------------------------------| 
|--9-9-9-9-9-9-9-9-7-7-7-9-9-9-9-9--| 
|--9-9-9-9-9-9-9-9-7-7-7-9-9-9-9-9--|x3 
|--7-7-7-7-7-7-7-7-5-5-5-7-7-7-7-7--| 
|-----------------------------------| 
 
|----------------| 
|----------------| 
|--999999999999--| 
|--999999999999--| 
|--777777777777--| 
|----------------| 
 
Solo - I'm pretty sure this is right. 
|-------------------------------------14----| 
|-------------12-11--------------12-14--14--| 
|--1/11-11~-9-------9-1/11-11~-9------------| 
|-------------------------------------------| 
|-------------------------------------------| 
|-------------------------------------------| 
 
|------------------------------------14-14-14-/-| 
|-------------12-11-----------------------------| 
|--1/11-11~-9-------9-1/11-11~-11-11------------| 
|-----------------------------------------------| 
|-----------------------------------------------| 
|-----------------------------------------------| 
 
|----------------------------------------------| 
|---------10-9-----10-9--------12-10-9-10-9----| 
|--1/9-9~------7-9-------11h13--------------7--| 
|--0-------------------------------------------| 
|----------------------------------------------| 
|----------------------------------------------| 
 
|----------9-9/12-12~-| 
|--12-10-9------------| 
|---------------------| 
|---------------------| 
|---------------------| 
|---------------------| 
 
There's a wierd bridge thing. I don't know it. 
 
(verse) 
 
(preChorus) 
 
(Chorus)x2 
 
end on 
|-----| 
|-----| 
|--9--| 
|--9--| 
|--7--| 
|-----| 
 
 ~enjoy~ 
 

		  

See also:

tabs Misc Cartoons - Hey! Arnold Theme tabs Misc Cartoons - 12th Street Rag From Spongebob tabs Misc Cartoons - Tooki Kioku tabs Misc Cartoons - Avatar Last Airbender - Little Soldier Boy tabs Misc Cartoons - One Punch Man Theme tabs Misc Cartoons - Death Note - L No Nakama
e-chords

Other versions:

tabs Puffy Amiyumi - Destruction Pancake
auto scroll beats size up size down change color hide chords drawings
tab show chords e-chords YouTube Clip e-chords hide all tabs e-chords go to top tab

share