Protomartyr

You're With A Creep

Protomartyr

tabs

by  AMAN_CLAUDINO

save to print version add songbook text version e-mail correct tuner
chordsukulelecavacokeyboardtabbassdrumsharmonicaflute Guitar Pro
close

there isn't a video lesson for this song

chords

You're With A Creep

	  		
e|---------------------------------------------------------------------------| 
B|----------------------------------------7-------7-------7-------7----------| 
G|--------------7-----------------7----9----9--7----7--9----9--7----7--------| 
D|--7--7-7--9-9---9---7--7-7--9-9---9----------------------------------------| 
A|---------------------------------------------------------------------------| 2x 
E|---------------------------------------------------------------------------| 

e|---------------------------------------------------------------------------| 
B|----------------------------------------7-------7-------7-------7----------| 
G|--------------7-----------------7----9----9--7----7--9----9--7----7--------| 
D|--7--7-7--9-9---9---7--7-7--9-9---9----------------------------------------| 
A|---------------------------------------------------------------------------| 4x 
E|---------------------------------------------------------------------------| 

Pure water's fine and sterile this I heard to be true  
But even pure water gets flushed down with it too 
See you walking down the street I see you at the show 
And everybody's gotta a secret you all know 

e|---------------------------------------------------------------------------| 
B|---------------------------------------8-8-8-7-7-7-8-8-8-7-7-7-------------| 
G|--------------7-----------------7------------------------------------------| 
D|--7--7-7--9-9---9---7--7-7--9-9---9----------------------------------------|  
A|---------------------------------------------------------------------------| 4x 
E|---------------------------------------------------------------------------| 

You're with a creep, You're with a creep 
You're with a creep, You're with a creep 
Pure water fine and sterile this I know to be true 
But even pure water gets flushed down with it too 

e|---------------------------------------------------------------------------| 
B|---------------------------------------------------------------------------| 
G|--7--7-7--7-7-7--7--7-7--7-7-7--9--9-9--9-9-9--9--9-9--9-9-9---------------| 
D|--7--7-7--7-7-7--7--7-7--7-7-7--9--9-9--9-9-9--9--9-9--9-9-9---------------| 
A|--5--5-5--5-5-5--5--5-5--5-5-5--7--7-7--7-7-7--7--7-7--7-7-7---------------| 4x 
E|---------------------------------------------------------------------------| 

You're with a creep, quit sleeping with ex's you're with a creep 
Doesn't matter who you're with a creep you're with a creep 
You're with a creep, You're with a creep 
You're with a creep, You're with a creep 

e|---------------------------------------------------------------------------| 
B|---------------------------------------8-8-8-7-7-7-8-8-8-7-7-7-------------| 
G|--------------7-----------------7------------------------------------------| 
D|--7--7-7--9-9---9---7--7-7--9-9---9----------------------------------------|  
A|---------------------------------------------------------------------------| 4x 
E|---------------------------------------------------------------------------| 

Pure water's fine and sterile this I heard to be true 
But even pure water gets flushed down with it too 

e|---------------------------------------------------------------------------| 
B|---------------------------------------------------------------------------| 
G|--7--7-7--7-7-7--7--7-7--7-7-7--9--9-9--9-9-9--9--9-9--9-9-9---------------| 
D|--7--7-7--7-7-7--7--7-7--7-7-7--9--9-9--9-9-9--9--9-9--9-9-9---------------| 
A|--5--5-5--5-5-5--5--5-5--5-5-5--7--7-7--7-7-7--7--7-7--7-7-7---------------| 4x 
E|---------------------------------------------------------------------------| 

You're with a creep, You're with a creep 
You're with a creep, You're with a creep 
Don't blame it on my pride you're with a creep 
Give it a rest you're with a creep 
you're with a creep 

e|---------------------------------------------------------------------------| 
B|---------------------------------------------------------------------------| 
G|--7------------------------------------------------------------------------| 
D|--7------------------------------------------------------------------------| 
A|--5------------------------------------------------------------------------| 
E|---------------------------------------------------------------------------| 
		  

See also:

tabs Deep Purple - Sail Away tabs Deep Purple - Pictures of Home tabs Deep Purple - Lazy tabs Deep Purple - Highway Star tabs Deep Purple - Deep Purple - Smoke On The Water tabs Deep Purple - Smoke On The Water (Intro + solo 01)
e-chords

Other versions:

tabs Protomartyr - You're With A Creep
auto scroll beats size up size down change color hide chords drawings
tab show chords e-chords YouTube Clip e-chords hide all tabs e-chords go to top tab

share