Promise Ring

home > Promise Ring

12 Sweaters Red Tab

Promise Ring

Difficulty: nolevelnolevel

by educastilho

tuner correct add songbook print version text version save to e-mail
chordsukulelecavacokeyboardtabbassdrumsharmonicsflute Guitar Pro
chords

12 Sweaters Red

  		

Intro Guitar 1 00:00 

e-------5-----5-----5-----5-----5--------------------------------------| 
B-----7-----7-----7-----7-----7---7-------7-----7-----7-----7-----7----| 
G---0-----0-----0-----0-----0-----------7-----7-----7-----7-----7---7--| 
D-------------------------------------0-----0-----0-----0-----0--------| 
A----------------------------------------------------------------------| 
E----------------------------------------------------------------------| 

Intro Guitar 2 00:12 
                                     from 2nd time through 
e----------------------9---------|--------------------------------------| 
B-----10----10----10-----10----10|-10/14/12-----------------------------| 
G---0-----0-----0----0-------0---|--------------------------------------| 
D--------------------------------|--------------------------------------| 
A--------------------------------|--------------------------------------| 
E--------------------------------|--------------------------------------| 

Change at 01:50 mark              
                                 02:00 
e-----------------------------|-----------------------------------------| 
B--------0------5-----0-------|-----------------------------------------| 
G----5-----5------5-----5-----|---6--4---2------------------------------| 
D--5---5-----5------5-----5---|------0---0------------------------------| 
A-----------------------------|---5--x---x------------------------------| 
E-----------------------------|------5---3------------------------------| 

Then go back to playing the intro at 02:12 

Then the bit you play at the 2 minute mark 

Then the heavier bit. 

Guitar 1 chords 

e----------------------------------------------------------------------| 
B----------------------------------------------------------------------| 
G--2---6--4--2---------------------------------------------------------| 
D--0------0--0---------------------------------------------------------| 
A------5--x--x---------------------------------------------------------| 
E--2------5--3---------------------------------------------------------| 

Guitar 2 at 02:52 

strum 32x 
             3:06 
e-------|---------------------------------------------------------------| 
B--10---|---------------------10/14/12--14-------10---------------------| 
G---9---|--/14--12---11---11----------------------9--etc----------------| 
D-------|---------------------------------------------------------------| 
A--(9)--|----------------------------------------(9)--------------------| 
E-------|---------------------------------------------------------------| 

Next part at 03:26 
e----------------------------------------------------------------------| 
B---12---15---12---12--------------------------------------------------| 
G---12---12---14---12-----0----0---0-----------------------------------| 
D---12---12---12---12-----10---10--10----------------------------------| 
A-------------------------10---10--10----------------------------------| 
E-------------------------8----8---8-----------------------------------| 

Then back to the regular heavier bit and play to the end. 

Very end 
e----------------------------------------------------------------------| 
B----------------------------------------------------------------------| 
G----------------------------------------------------------------------| 
D--0-0-0-0-0-0-0-0-----------------------------------------------------| 
A--x-x-x-x-x-x-x-x-----------------------------------------------------| 
E--2-2-2-2-2-2-2-3-----------------------------------------------------| 
	  

Search Paypal
auto scroll beats size up size down change color hide chords drawings
tab show chords e-chords YouTube Clip e-chords hide all tabs e-chords go to top tab