Projota

home > Projota

O Poeta Tab

Projota

Difficulty: nolevelnolevel

by runk

tuner correct add songbook print version text version save to e-mail
chordsukulelecavacokeyboardtabbassdrumsharmonicsflute Guitar Pro
chords

O Poeta

(Projota)

  		
		 

E|--------------|--------------|--------------|-------------------| 
B|--------------|--------------|--------------|-------------------| 
G|--------------|--------------|--------------|----------------0--| 
D|-----4-----0--|-----4-----0--|-----4-----0--|-----4-----0-------| 
A|--2-----2-----|--------------|--2-----2-----|-------------------| 
E|--------------|--3-----3-----|--------------|--3-----3----------| 



E|--------------|--------------|--------------|-------------------| 
B|--------------|--------------|--------------|-------------------| 
G|-(0)----------|--------------|--------------|-------------------| 
D|-----4-----0--|-----4-----0--|-----4-----0--|-------------------| 
A|--2-----2-----|--0-----0-----|--------------|-----2-----2-------| 
E|--------------|--------------|--3-----3-----|--0-----2----------| 
	  

Search Paypal
auto scroll beats size up size down change color hide chords drawings
tab show chords e-chords YouTube Clip e-chords hide all tabs e-chords go to top tab