Projeto R.U.A.

Raios E Trovões

Projeto R.U.A.

tabs

by  JOAOEWERTON

save to print version add songbook text version e-mail correct tuner
chordsukulelecavacokeyboardtabbassdrumsharmonicaflute Guitar Pro
close

there isn't a video lesson for this song

chords

Raios E Trovões

	  		

 
E|--------------------------------------------------------------| 
B|--------------------------------------------------------------| 
G|--------------------------------------------------------------| 
D|--0-0-X-0-X-0--0-0-X-0-X-0--0-0-X-0-X-0--0-0-X-0-X-0--0--/12--| 
A|--0-0-X-0-X-0--0-0-X-0-X-0--0-0-X-0-X-0--0-0-X-0-X-0--0--/12--| 
D|--0-0-X-0-X-0--0-0-X-0-X-0--0-0-X-0-X-0--0-0-X-0-X-0--0--/12--| 
 


GTR BASE 

 
E|----------------------------------------------------------------------------| 
B|----------------------------------------------------------------------------| 
G|----------------------------------------------------------------------------| 
D|--0-0--3--5--3-5-3--0-0--3--5--3-5-3--0-0--3--5--3-5-3--0-0--3--5--3-5-3--0-| 
A|--0-0--3--5--3-5-3--0-0--3--5--3-5-3--0-0--3--5--3-5-3--0-0--3--5--3-5-3--0-| 
D|--0-0--3--5--3-5-3--0-0--3--5--3-5-3--0-0--3--5--3-5-3--0-0--3--5--3-5-3--0-| 
 

GTR SOLO 

 
E|-------------------------------------------------10-13b15-13-12-----------------------| 
B|-------------------------6-8-8b10--10r8-6------10---------------13----10----------13--| 
G|-/2~~-------------5-7--7--------------------10---------------------12----12-12b14-----| 
D|-----------5-7~-7---------------------------------------------------------------------| 
A|-----5-7-8----------------------------------------------------------------------------| 
D|--------------------------------------------------------------------------------------| 
 

 
E|---------------------------------------| 
B|---------------------------------------| 
G|--12b14-12b14-12-10-12b14--12p10-------| 
D|---------------------------------12~~--| 
A|---------------------------------------| 
D|---------------------------------------| 
 


======================================================================================== 

> 


GTR CLEAN (Choruus + Phaser + Delay) 


 
E|--------1----------------3--------------1----------------3------| 
B|----3----3-------3-----------5------3----3-------3-----------5--| 
G|------2---2--------2---4---4----------2---2--------2---4---4----| 
D|--0--------0-2-3-----5------------0--------0-2-3-----5----------| 
A|----------------------------------------------------------------| 
D|----------------------------------------------------------------| 
 

 
E|--------1----------------3--------------1----------------3--------| 
B|----3----3-------3-----------5------3----3-------3----------------| 
G|------2---2--------2---4---4----------2---2--------2---4----------| 
D|--0--------0-2-3-----5------------0--------0-2-3-----5-----5-6----| 
A|------------------------------------------------------------------| 
D|------------------------------------------------------------------| 
 

Eu vim de longe, longa data, longa vida, longa estrada, esquecida nesse mundo de ilusão. 
Mas aí, eu nem me ligo, eu só sigo e consigo, da vitória não desisto porque nada é em vão; 
Foi assim, parei no farol, vi o cara no sol, e no futebol, esse cara leva jeito pode até virar... 
Mas não, chiclete na mão, o pé tá no chão e sem ilusão ele sabe que é assim se quiser vingar. 

 
E|---------5---------------------------------5------------------------| 
B|-----6-----6-------6-------8-----------6-----6-------6-------8------| 
G|-------7-----7---5---5---7-----7---------7-----7---5---5---7--------| 
D|---7-----------7-------9-----9-------7-----------7-------9-----/12--| 
A|---------------------------------------------------------------/12--| 
D|---------------------------------------------------------------/12--| 
 

Foi aí, que eu me lembrei de um certo louco que um dia cantou, brilho, me ensinou, me pôs na cara do gol... 
"Joga quem sabe jogar, ganha quem sabe perder", um balde de água fria na moral, fiz ferver 

(abafado) 
 
E|----------------------------------------------------------------| 
B|----------------------------------------------------------------| 
G|----------------------------------------------------------------| 
D|--0-0--0-2-3-5-3-2-3----0-0--0-2-3-5-3-2-3--0-0--0-2-3-5-3-2-3--| 
A|--0-0--0-2-3-5-3-2-3----0-0--0-2-3-5-3-2-3--0-0--0-2-3-5-3-2-3--| 
D|--0-0--0-2-3-5-3-2-3----0-0--0-2-3-5-3-2-3--0-0--0-2-3-5-3-2-3--| 
 

 
E|--------------------------------------------------------------------------| 
B|--------------------------------------------------------------------------| 
G|--------------------------------------------------------------------------| 
D|--0-0--0-2-3-5-3-2-3----0-0--0-2-3-5-3-2-3--0-0--0-2-3-5-3-2-3--0-0-------| 
A|--0-0--0-2-3-5-3-2-3----0-0--0-2-3-5-3-2-3--0-0--0-2-3-5-3-2-3--0-0-------| 
D|--0-0--0-2-3-5-3-2-3----0-0--0-2-3-5-3-2-3--0-0--0-2-3-5-3-2-3--0-0--/12~~| 
 

Pode mandar, pode julgar, pode até debochar... só não pode mudar aquilo que eu sou, onde estou, pra onde vou; tô cheio de blá blá blá, então não venha falar porque aqui nada mudou. 
O que eu não quero é viver mais nesse mundo de ilusões, eu vivo a minha vida entre raios e trovões! 


=============================================================================== 


> 


GTR BASE 

 
E|--------------------------------------------------------------------------------------| 
B|--------------------------------------------------------------------------------------| 
G|--------------------------------------------------------------------------------------| 
D|--0-0--3--5--3-5-3--0-0--3--5--3-5-3--0-0--3--5--3-5-3--0-0--3--5--3-5-3--0-0-X-0-X-0-| 
A|--0-0--3--5--3-5-3--0-0--3--5--3-5-3--0-0--3--5--3-5-3--0-0--3--5--3-5-3--0-0-X-0-X-0-| 
D|--0-0--3--5--3-5-3--0-0--3--5--3-5-3--0-0--3--5--3-5-3--0-0--3--5--3-5-3--0-0-X-0-X-0-| 
 

GTR SOLO 

 
E|-----|------|--------------------------------------|-------------| 
B|-----|------|--------------------------------------|-------------| 
G|-----|--/2~-|-5h7p5h7p5h7p5h7p5h7p5h7p5h7p5h7p5h7~-|--12b14-10~--| 
D|-----|------|--------------------------------------|-------------| 
A|-----|------|--------------------------------------|-------------| 
D|-----|------|--------------------------------------|-------------| 
 

Pode chover, pode até trovoar, porque eu não vou parar... 
Deixa descer, deixa essa chuva rolar, porque eu não vou mudar; 
Pode chover, pode até trovoar, porque eu não vou parar... 
Deixa descer, deixa essa chuva rolar, porque eu não vou mudar. 

=========================================================================================== 

> 


GTR CLEAN (Chorus + Phaser + Delay) 


 
E|-1--------1----------------3--------------1----------------3--------| 
B|-3----3----3-------3-----------5------3----3-------3----------------| 
G|-2------2---2--------2---4---4----------2---2--------2---4----------| 
D|-0--0--------0-2-3-----5------------0--------0-2-3-----5-----5-6----| 
A|--------------------------------------------------------------------| 
D|--------------------------------------------------------------------| 
 

De onde eu vim, aprendi que não se pode parar, desistir nem chorar, que não há tempo a perder... 
E perdi, vamo lá, eu ouvi; levantar a cabeça e seguir, não se pode julgar nem nunca subestimar; 


 
E|---------5---------------------------------5------------------------| 
B|-----6-----6-------6-------8-----------6-----6-------6-------8------| 
G|-------7-----7---5---5---7-----7---------7-----7---5---5---7-----7--| 
D|---7-----------7-------9-----9-------7-----------7-------9-----9----| 
A|--------------------------------------------------------------------| 
D|--------------------------------------------------------------------| 
 

Foi o que eu aprendi, aprenda você também e nunca ouça ninguém que chega pra falar, pra te ludibriar, te pôr entre o mal e o bem. Minha cabeça pirou, mas aí, sou do bem... 

 
E|--------------------------------------------------| 
B|-----------10------------10-------12-10-13b15~~~--| 
G|-----10-------10-9-10-10----10-12-----------------| 
D|--12----12----------------------------------------| 
A|--------------------------------------------------| 
D|--------------------------------------------------| 
 

Então não vem que não tem, porque agora eu to zen e não sou mais um refém, cê tá ligado... 
Pare com isso agora que eu quero melhor, e que venha o pior, que eu não sou um vilão! 


 
E|----------------------------------------------------------------| 
B|----------------------------------------------------------------| 
G|----------------------------------------------------------------| 
D|--0-0--0-2-3-5-3-2-3----0-0--0-2-3-5-3-2-3--0-0--0-2-3-5-3-2-3--| 
A|--0-0--0-2-3-5-3-2-3----0-0--0-2-3-5-3-2-3--0-0--0-2-3-5-3-2-3--| 
D|--0-0--0-2-3-5-3-2-3----0-0--0-2-3-5-3-2-3--0-0--0-2-3-5-3-2-3--| 
 

 
E|--------------------------------------------------------------------------| 
B|--------------------------------------------------------------------------| 
G|--------------------------------------------------------------------------| 
D|--0-0--0-2-3-5-3-2-3----0-0--0-2-3-5-3-2-3--0-0--0-2-3-5-3-2-3--0-0-------| 
A|--0-0--0-2-3-5-3-2-3----0-0--0-2-3-5-3-2-3--0-0--0-2-3-5-3-2-3--0-0-------| 
D|--0-0--0-2-3-5-3-2-3----0-0--0-2-3-5-3-2-3--0-0--0-2-3-5-3-2-3--0-0--/15~~| 
 

Pode mandar, pode julgar, pode até debochar... só não pode mudar aquilo que eu sou, onde estou, pra onde vou; tô cheio de blá blá blá, então não venha falar porque aqui nada mudou. 
O que eu não quero é viver mais nesse mundo de ilusões, eu vivo a minha vida entre raios e trovões! 


=============================================================================== 


> 


GTR BASE 

 
E|--------------------------------------------------------------------------------------| 
B|--------------------------------------------------------------------------------------| 
G|--------------------------------------------------------------------------------------| 
D|--0-0--3--5--3-5-3--0-0--3--5--3-5-3--0-0--3--5--3-5-3--0-0--3--5--3-5-3--0-0-X-0-X-0-| 
A|--0-0--3--5--3-5-3--0-0--3--5--3-5-3--0-0--3--5--3-5-3--0-0--3--5--3-5-3--0-0-X-0-X-0-| 
D|--0-0--3--5--3-5-3--0-0--3--5--3-5-3--0-0--3--5--3-5-3--0-0--3--5--3-5-3--0-0-X-0-X-0-| 
 

GTR SOLO 

 
E|-----|------|--------------------------------------|-------------| 
B|-----|------|--------------------------------------|-------------| 
G|-----|--/2~-|-5h7p5h7p5h7p5h7p5h7p5h7p5h7p5h7p5h7~-|--12b14-10~--| 
D|-----|------|--------------------------------------|-------------| 
A|-----|------|--------------------------------------|-------------| 
D|-----|------|--------------------------------------|-------------| 
 

Pode chover, pode até trovoar, porque eu não vou parar... 
Deixa descer, deixa essa chuva rolar, porque eu não vou mudar; 
Pode chover, pode até trovoar, porque eu não vou parar... 
Deixa descer, deixa essa chuva rolar, porque eu não vou mudar. 


======================================================================================== 

> 



BASE DO SOLO 

 
E|----------------------------------------------------------------------------| 
B|----------------------------------------------------------------------------| 
G|----------------------------------------------------------------------------| 
D|--0-0--3--5--3-5-3--0-0--3--5--3-5-3--0-0--3--5--3-5-3--0-0--3--5--3-5-3--0-| 
A|--0-0--3--5--3-5-3--0-0--3--5--3-5-3--0-0--3--5--3-5-3--0-0--3--5--3-5-3--0-| 
D|--0-0--3--5--3-5-3--0-0--3--5--3-5-3--0-0--3--5--3-5-3--0-0--3--5--3-5-3--0-| 
 


GTR SOLO 

 
E|------13-15-15b17-b17-b17-b17-15b17~--17r15-13-15p13------------------------| 
B|--/15------------------------------------------------15----13-15-15b17~-----| 
G|--------------------------------------------------------14------------------| 
D|----------------------------------------------------------------------------| 
A|----------------------------------------------------------------------------| 
D|----------------------------------------------------------------------------| 
 

 
E|-----10-12b13r12-10---------------------------------------------------------| 
B|---10---------------10-13b15-b15-13p10-13b15r13-11-10----10-----------------| 
G|-10---------------------------------------------------12----12-10-9-10------| 
D|-----------------------------------------------------------------------12~--| 
A|----------------------------------------------------------------------------| 
D|----------------------------------------------------------------------------| 
 

 
E|--t17p10h13-----------t17p10h13-----------t17p10h13-----------t17p10h13-----------| 
B|------------t17p10h13-----------t17p10h13-----------t17p10h13-----------t17p10h13-| 
G|----------------------------------------------------------------------------------| 
D|----------------------------------------------------------------------------------| 
A|----------------------------------------------------------------------------------| 
D|----------------------------------------------------------------------------------| 
 

 
E|----------------------------------------------------------------------------------| 
B|--t15p8h10----------t15p8h10----------t15p8h10---------t15p8h10t15----------------| 
G|-----------t15p8h12----------t15p8h12----- ---t15p8h12----------------------------| 
D|----------------------------------------------------------------------------------| 
A|----------------------------------------------------------------------------------| 
D|----------------------------------------------------------------------------------| 
 

 
E|--13-10-12-10------------------------------------------------10h12h13-------------| 
B|--------------13-10-13p12p10------10----------------10h11h13----------12h13h15----| 
G|-----------------------------10h12---10-----9h10h12-------------------------------| 
D|-----------------------------------------12---------------------------------------| 
A|----------------------------------------------------------------------------------| 
D|----------------------------------------------------------------------------------| 
 

 
E|--12h13h15----------13h15h17----------15h17h18----------17h18h20-20b22~~~~~~~~----| 
B|-----------13h15h17----------15h17h18----------17h18h20---------------------------| 
G|----------------------------------------------------------------------------------| 
D|----------------------------------------------------------------------------------| 
A|----------------------------------------------------------------------------------| 
D|----------------------------------------------------------------------------------| 
 
		  

See also:

tabs Jota Quest - Mais Uma Vez tabs Los Hermanos - Anna Julia tabs Cássia Eller - Malandragem (Acoustic) tabs Legião Urbana - Será tabs Legião Urbana - Hoje A Noite Não Tem Luar tabs Legião Urbana - Eduardo E Mônica
e-chords

Other versions:

tabs Projeto R.U.A. - Raios E Trovões
auto scroll beats size up size down change color hide chords drawings
tab show chords e-chords YouTube Clip e-chords hide all tabs e-chords go to top tab

share