Project X

Shutdown

Project X

tabs

by  RENEJUNIOR

save to print version add songbook text version e-mail correct tuner
chordsukulelecavacokeyboardtabbassdrumsharmonicaflute Guitar Pro
close

there isn't a video lesson for this song

chords

Shutdown

	  		
Intro                      
e|--------------------------------| 
b|--------------------------------| 
G|--9--9--9-9-9-9-9-9-9--9--------| 
D|--9--9--9-9-9-9-9-9-9--9--7(9)--| 
A|--7--7--7-7-7-7-7-7-7--7--------| 
E|--------------------------------| 

Verse 
e|------------------------------------------| 
b|------------------------------------------| 
G|--9-9-9--7-7-7--10-10-10--12-12-12--------| 
D|--9-9-9--7-7-7--10-10-10--12-12-12--------| 
A|--7-7-7--5-5-5--8--8--8---10-10-10--------| x6 
E|------------------------------------------| 

e|--------| 
b|--------| 
G|--9-9-/-| 
D|--9-9-/-| 
A|--7-7-/-| 
E|--------| 

Chorus 
e|-------------------------------------------------------| 
b|-------------------------------------------------------| 
G|--9-9-9-9--12-12-12--10-10---9-9-9-9--7-7-7--10--------| 
D|--9-9-9-9--12-12-12--10-10---9-9-9-9--7-7-7--10--------| 
A|--7-7-7-7--10-10-10--8--8----7-7-7-7--5-5-5--8---------| x2 
E|-------------------------------------------------------| 

e|--------| 
b|--------| 
G|--9-9---| 
D|--9-9---| 
A|--7-7---| 
E|--------| 

Verse 
e|------------------------------------------| 
b|------------------------------------------| 
G|--9-9-9--7-7-7--10-10-10--12-12-12--------| 
D|--9-9-9--7-7-7--10-10-10--12-12-12--------| 
A|--7-7-7--5-5-5--8--8--8---10-10-10--------| x6 
E|------------------------------------------| 

e|--------| 
b|--------| 
G|--9-9-/-| 
D|--9-9-/-| 
A|--7-7-/-| 
E|--------| 

Outro 
e|-----------------------------------| 
b|-----------------------------------| 
G|--9-9-9-9--7-7-7--6-6-6-7----------| 
D|--9-9-9-9--5-5-5--6-6-6-7----------| 
A|--7-7-7-7---------4-4-4-5----------| x3 
E|-----------------------------------| 

e|------------------------| 
b|------------------------| 
G|--9-9-9-9--7-7-7--6---9-| 
D|--9-9-9-9--5-5-5--6---9-| 
A|--7-7-7-7---------4---7-| 
E|------------------------| 


************************************ 

| (n)  Ghost note 
| /    Slide up 

************************************ 
		  

See also:

tabs Ira! - Vitrine Viva tabs Deep Purple - Black Knight tabs Deep Purple - Demonds Eye tabs Deep Purple - Smoke on the Water (ver. 2) tabs Deep Purple - Clearly Quite Absurd tabs Ira! - Envelheço na Cidade (intro)
e-chords

Other versions:

tabs Project X - Shutdown
auto scroll beats size up size down change color hide chords drawings
tab show chords e-chords YouTube Clip e-chords hide all tabs e-chords go to top tab

share