Prince Royce

Tu Y Yo

Prince Royce

tabs Beginner beginner

by  V1CTORRRR

save to print version add songbook text version e-mail correct tuner
chordsukulelecavacokeyboardtabbassdrumsharmonicaflute Guitar Pro
close

there isn't a video lesson for this song

chords

Tu Y Yo

	  		so here's my interpretation of Tu y Yo by Prince royce 
this is like the first 30 seconds or so. will add more later 
if you think theres something wrong with it email me and il fix it ([email protected]) 
hope u like it :) 


e|----------------------------------------------------------------------| 
B|----------------------------------------------------------------------| 
G|--15/17--20--15--20--13--13-12--15--10--10/12-15-17-15-13-17--15------| 
D|----------------------------------------------------------------------| 
A|----------------------------------------------------------------------| 
E|----------------------------------------------------------------------| 



e|----------------------------------------------------------------------| 
B|----------------------------------------------------------------------| 
G|--15/17--20--15--20--13--13-12--15--10-10/12-15-17-15-1313/12-12-13---| ..YO SE QUE TUS AMISTADES HABLAN MAL DE MI.. 
D|----------------------------------------------------------------------| 
A|----------------------------------------------------------------------| 
E|----------------------------------------------------------------------| 



                  ..dicen que soy malo para ti.. 
e|---------------------------------------------------| 
B|-------------------------------13------------------| 
G|-10--13L1013L10----10--13L1213---------------------| 
D|---------------------------------------------------| 
A|---------------------------------------------------| 
E|---------------------------------------------------| 



                   ..lo que sucede entre tu y yo.. 
e|---------------------------------------------------| 
B|-------------15-------------15---------------15----| 
G|--9-10/13-14-----9-10/13-14------10-13/10-13-------| 
D|---------------------------------------------------| 
A|---------------------------------------------------| 
E|---------------------------------------------------| 

by Victor R 
		  

See also:

tabs Misc Computer Games - Outer Wilds - Riebecks Banjo Theme tabs David Aguilar - Eco tabs Misc Television - Family Guy - Iraq Lobster tabs Megaman - Concrete Jungle tabs Misc Computer Games - The Sims 3 - Main Theme tabs Misc Computer Games - Plants Vs Zombies 2 - Wild West Theme
e-chords

Other versions:

tabs Prince Royce - Tu Y Yo
auto scroll beats size up size down change color hide chords drawings
tab show chords e-chords YouTube Clip e-chords hide all tabs e-chords go to top tab

share