Pregador Luo

Nada É Impossível

Pregador Luo

tabs

by  CAPTAOSKL

save to print version add songbook text version e-mail correct tuner
chordsukulelecavacokeyboardtabbassdrumsharmonicaflute Guitar Pro
close

there isn't a video lesson for this song

chords

Nada É Impossível

(Pregador luo)

	  		Intro: 

                    Cm                         Dm                      D# 
E|--------3-----3-----3-----3----------------5---------------6-----6-----6-----6-------------- 
B|--------2-----2-----2-----2----------------6---------------8-----8-----8-----8-------------- 
G|--------5-----5-----5-----5----------------7---------------8-----8-----8-----8-------------- 
D|--------5-----5-----5-----5----------------7---------------8-----8-----8-----8-------------- 
A|--------3-----3-----3-----3----------------5---------------6-----6-----6-----6-------------- 
E|--------x-----x-----x-----x----------------x---------------x-----x-----x-----x-------------- 


                     Dm                                                 Cm 
E|--------5-----5-----5-----5--------------------------------3-----3-----3-----3-------------- 
B|--------6-----6-----6-----6--------------------------------2-----2-----2-----2-------------- 
G|--------7-----7-----7-----7--------------------------------5-----5-----5-----5-------------- 
D|--------7-----7-----7-----7--------------------------------5-----5-----5-----5-------------- 
A|--------5-----5-----5-----5--------------------------------3-----3-----3-----3-------------- 
E|--------x-----x-----x-----x--------------------------------x-----x-----x-----x-------------- 


RIFF: 

E|------------------------------------ 
B|------------------------------------ 
G|------------------------------------ 
D|--------5--6--5--3------------------ 
A|--------------------6--5--3--------- 
E|------------------------------------ 


PEGADA 1: 
E|--------3----------3--------------x-------------6----------6--------------x------------- 
B|--------2----------2--------------x-------------8----------8--------------x------------- 
G|--------5----------5--------------5-------------8----------8--------------8------------- 
D|--------5----------5--------------5-------------8----------8--------------8------------- 
A|--------3----------3----3-3-3-3---3-------------6----------6----6-6-6-6---6------------- 
E|--------x----------x--------------x-------------x----------x--------------x------------- 
                         P.M------|                             P.M------| 
E|--------5----------5--------------x-------------3----------3---------------------------- 
B|--------6----------6--------------x-------------2----------2---------------------------- 
G|--------7----------7--------------7-------------5----------5---------------------------- 
D|--------7----------7--------------7-------------5----------5------------5-6-5-3--------- 
A|--------5----------5----5-5-5-5---5-------------3----------3----3-3-3-3---------6-5-3--- 
E|--------x----------x--------------x-------------x----------x---------------------------- 
                         P.M------|                             P.M------| 

PEGADA 2: 

E|--------------------------------------------------------------------------------------- 
B|--------------------------------------------------------------------------------------- 
G|--------------------------------------------------------------------------------------- 
D|--------5-----5------------5-----5-------------8-----8------------8------8------------- 
A|--------3-----3------------3-----3-------------6-----6------------6------6------------- 
E|--------------------------------------------------------------------------------------- 
       P.M-------------------------------------------------------------------| 



E|--------------------------------------------------------------------------------------- 
B|--------------------------------------------------------------------------------------- 
G|--------------------------------------------------------------------------------------- 
D|--------7-----7------------7-----7-------------5------5---------------5-6-5-3---------- 
A|--------5-----5------------5-----5-------------3------3---------3-3-----------6-5-3---- 
E|--------------------------------------------------------------------------------------- 
       P.M-----------------------------------------------------------| 


 
		  

Full key step upFull key step up
Half key step upHalf key step up
Half key step downHalf key step down
Full key step downFull key step down
hide glossary

See also:

tabs Toque no Altar - Deus De Promessa tabs PG - Meu Universo tabs Atmosfera de Adoração - Agnus Dei(Solo) tabs Atmosfera de Adoração - Agnus Dei(Solo) tabs Oficina G3 - Atitude tabs Atmosfera de Adoração - Aleluia
e-chords

Other versions:

tabs Pregador Luo - Nada É Impossível
auto scroll beats size up size down change color hide chords drawings
tab show chords e-chords YouTube Clip e-chords hide all tabs e-chords go to top tab

share