Pray for the Pipes

Física

Pray for the Pipes

tabs nolevel nolevel

by  ADALGOMES

save to print version add songbook text version e-mail correct tuner
chordsukulelecavacokeyboardtabbassdrumsharmonicaflute Guitar Pro
close

there isn't a video lesson for this song

chords

Física

Key:  D More
Física Key AA
Física Key A#A#
Física Key BB
Física Key CC(one step down)
Física Key C#C#(half step down)
Física Key DD(original key)
Física Key D#D#(half step up)
Física Key EE(one step up)
Física Key FF
Física Key F#F#
Física Key GG
Física Key G#G#
	  		Intro / Versos: 


 
      D               G 
E|---------------------------------| 
B|------3---------------3----------| 
G|---------2----2----------0---0---| 
D|---0-0-----0---------------0-----| 
A|---------------------------------| 
E|------------------3-3------------| 
 


Hoje de manhã 
Acordei na movimentação 
Isso é física 
Eu te digo meu irmão 

Tenho que achar 
O meu referencial 
Estava em repouso 
Mas agora estou normal 

Bem, a física é vida 
Pois você vai se movimentar 
Ou em repouso 
Pra sempre(frente) ficará 
Solo: 

 
        G       D     G   D     G   D           G            D 
E|-----------------|---------|-----------10--------------------| 
B|---------6-------|-7-5-3-3-|------10h12--12-12p10-13-12-10---| 
G|-----5-7---7-5-7-|-7-5-4-4-|-11h12------------------------12^| 
D|---7-------------|---------|---------------------------------| 
A|-----------------|---------|---------------------------------| 
E|-----------------|---------|---------------------------------| 
 


Nunca comece com a estatica 
Nunca mude o referencial 
Senão tudo irá ficar 
ANORMAL 

É o estilo da física que faz você viver 
Na física, tudo volta pra você 
Então, acerte o movimento 
do seu referenciamento 

Movimento e repouso 
Eles não são iguais 
Tudo depende 
Dos referenciais 

Tente e tente 
Mas você não vai achar 
O momento, o movimento 
(solo) Do giro que a Terra dá 

O movimento, é o que eu tenho (x4) 
Tenho 
Tenho 
Tenho 
Tenho 
		  

Full key step upFull key step up
Half key step upHalf key step up
Half key step downHalf key step down
Full key step downFull key step down
hide glossary

See also:

tabs Titãs - É preciso saber viver (2) tabs Legião Urbana - Índios tabs Legião Urbana - Ainda É Cedo tabs Engenheiros do Hawaii - Era um garoto... tabs RPM - Olhar 43 tabs Engenheiros do Hawaii - Pra ser sincero- (solo intro)
e-chords

Other versions:

tabs Pray for the Pipes - Física
auto scroll beats size up size down change color hide chords drawings
tab show chords e-chords YouTube Clip e-chords hide all tabs e-chords go to top tab

share with facebook