Portishead

home > Portishead

Sos Tab

Portishead

Difficulty: nolevelnolevel

by tamamoreira

tuner correct add songbook print version text version save to e-mail
chordsukulelecavacokeyboardtabbassdrumsharmonicsflute Guitar Pro
chords

Sos

Key:  C More
Sos Key GG
Sos Key G#G#
Sos Key AA
Sos Key A#A#(one step down)
Sos Key BB(half step down)
Sos Key CC(original key)
Sos Key C#C#(half step up)
Sos Key DD(one step up)
Sos Key D#D#
Sos Key EE
Sos Key FF
Sos Key F#F#
  		
Tuning: C G C F A D

Intro 

D|17-17-17----17----17----|17-------17-17-17-------| 
A|------------------------|------------------------| 
F|------------------------|------------------------| 
C|------------------------|------------------------| 
G|------------------------|------------------------| 
C|------------------------|------------------------| 


Verse 

  Fade in w/ E-Bow 
D|10--------------|(10)------------|(10)------------|(10)------------| 
A|----------------|----------------|----------------|----------------| 
F|----------------|----------------|----------------|----------------| 
C|----------------|----------------|----------------|----------------| 
G|----------------|----------------|----------------|----------------| 
C|----------------|----------------|----------------|----------------| 

D|(10)------------|(10)------------|(10)------------|(10)------------| 
A|----------------|----------------|----------------|----------------| 
F|----------------|----------------|----------------|----------------| 
C|----------------|----------------|----------------|----------------| 
G|----------------|----------------|----------------|----------------| 
C|----------------|----------------|----------------|----------------| 

D|(10)------------|(10)------------|(10)------------|(10)------------| 
A|----------------|----------------|----------------|----------------| 
F|----------------|----------------|----------------|----------------| 
C|----------------|----------------|----------------|----------------| 
G|----------------|----------------|----------------|----------------| 
C|----------------|----------------|----------------|----------------| 

D|(10)------------|(10)------------|(10)------------|(10)------------| 
A|----------------|----------------|----------------|----------------| 
F|----------------|----------------|----------------|----------------| 
C|----------------|----------------|----------------|------------3---| 
G|----------------|----------------|----------------|----------------| 
C|----------------|----------------|----------------|----------------| 

D|(10)------------|(10)------------|(10)------------|(10)------------| 
A|----------------|----------------|----------------|----------------| 
F|----------------|----------------|----------------|----------------| 
C|0---------------|----------------|----------------|------------3---| 
G|----------------|----------------|----------------|----------------| 
C|----------------|----------------|----------------|----------------| 

D|(10)------------|(10)------------|(10)------------|(10)------------| 
A|----------------|----------------|----------------|----------------| 
F|----------------|----------------|----------------|----------------| 
C|0---------------|----------------|----------------|----------------| 
G|----------------|----------------|----------------|----------------| 
C|----------------|----------------|----------------|----------------| 


Chorus 

D|15--------------|18--------------|17--------------|(17)------------| 
A|----------------|----------------|----------------|----------------| 
F|----------------|----------------|----------------|----------------| 
C|----------------|----------------|----------------|----------------| 
G|----------------|----------------|----------------|----------------| 
C|5---------------|8---------------|0---------------|(0)-------------| 

D|15--------------|18--------------|-----+22+-------|(22)------------| 
A|----------------|----------------|22--------------|(22)------------| 
F|----------------|----------------|----------------|----------------| 
C|----------------|----------------|----------------|----------------| 
G|----------------|----------------|----------------|----------------| 
C|5---------------|8---------------|0---------------|(0)-------------| 

D|(22)------------|----------------| 
A|(22)------------|----------------| 
F|----------------|----------------| 
C|----------------|----------------| 
G|----------------|----------------| 
C|----------------|----------------| 


Verse 

 listen for the exact syncopated rhythm 
D|--------------------------------|--------------------------------| 
A|x-3-3-3-x-x-3-3-3-3-x-3-3-3-3-x-|x-3-3-3-x-x-3-3-3-3-x-3-3-3-3-x-| 
F|--------------------------------|--------------------------------| 
C|--------------------------------|--------------------------------| x3 
G|--------------------------------|--------------------------------| 
C|--------------------------------|--------------------------------| 


D|--------------------------------|--------------------------------| 
A|x-3-3-3-x-x-3-3-3-3-x-3-3-3-3-x-|x-3-3-3-x-x-3-3-3-3-x-3-3-3-3-x-| 
F|--------------------------------|--------------------------------| 
C|--------------------------------|--------------------------------| 
G|--------------------------------|--------------------------------| 
C|--------------------------------|--------------------------------| 
 |                                                                   x2 
D|--------------------------------|--------------------------------| 
A|--------------------------------|--------------------------------| 
F|--------------------------------|--------------------------------| 
C|------------------------3-------|0-------------------------------| 
G|--------------------------------|--------------------------------| 
C|--------------------------------|--------------------------------| 

                                                           Fade out 
D|--------------------------------|--------------------------------| 
A|x-3-3-3-x-x-3-3-3-3-x-3-3-3-3-x-|x-3-3-3-x-x-3-3-3-3-x-3-3-3-3-x-| 
F|--------------------------------|--------------------------------| 
C|--------------------------------|--------------------------------| 
G|--------------------------------|--------------------------------| 
C|--------------------------------|--------------------------------| 


D|13--------------|----------------|12--------------|----------------| 
A|----------------|----------------|----------------|----------------| 
F|----------------|----------------|----------------|----------------| 
C|----------------|----------------|----------------|------------3---| 
G|----------------|----------------|----------------|----------------| 
C|0---------------|----------------|----------------|----------------| 

D|13--------------|----------------|12--------------|10--------------| 
A|----------------|----------------|----------------|----------------| 
F|----------------|----------------|----------------|----------------| 
C|0---------------|----------------|----------------|----------------| 
G|----------------|----------------|----------------|----------------| 
C|0---------------|--------------0-|----------------|----------------| 


Chorus 

D|15--------------|18--------------|17--------------|(17)------------| 
A|----------------|----------------|----------------|----------------| 
F|----------------|----------------|----------------|----------------| 
C|----------------|----------------|----------------|----------------| 
G|----------------|----------------|----------------|----------------| 
C|5---------------|8---------------|0---------------|(0)-------------| 

D|15--------------|18--------------| 
A|----------------|----------------| 
F|----------------|----------------| 
C|----------------|----------------| 
G|----------------|----------------| 
C|5---------------|8---------------| 


2nd synth line enters 

D|--------6-----5---------6-----5-|--------6-----5---------6-----5-| 
A|--3-5-6-----------3-5-6---------|--3-5-6-----------3-5-6---------| 
F|--------------------------------|--------------------------------| 
C|--------------------------------|--------------------------------| 
G|--------------------------------|--------------------------------| 
C|--------------------------------|--------------------------------| 
 | 
D|17------------------------------|(17)----------------------------| 
A|--------------------------------|--------------------------------| 
F|--------------------------------|--------------------------------| 
C|--------------------------------|--------------------------------| 
G|--------------------------------|--------------------------------| 
C|0-------------------------------|(0)-----------------------------| 


D|--------6-----5---------6-----5-|--------6-----5---------6-----5-| 
A|--3-5-6-----------3-5-6---------|--3-5-6-----------3-5-6---------| 
F|--------------------------------|--------------------------------| 
C|--------------------------------|--------------------------------| 
G|--------------------------------|--------------------------------| 
C|--------------------------------|--------------------------------| 
 | 
D|10------------------------------|(10)----------------------------| 
A|--------------------------------|--------------------------------| 
F|--------------------------------|--------------------------------| 
C|--------------------------------|--------------------------------| 
G|--------------------------------|--------------------------------| 
C|5-------------------------------|8-------------------------------| 

                                                           Fade out 
D|--------6-----5---------6-----5-|--------6-----5---------6-----5-| 
A|--3-5-6-----------3-5-6---------|--3-5-6-----------3-5-6---------| 
F|--------------------------------|--------------------------------| 
C|--------------------------------|--------------------------------| 
G|--------------------------------|--------------------------------| 
C|--------------------------------|--------------------------------| 
 | 
D|(10)----------------------------|\5------------------------------| 
A|--------------------------------|--------------------------------| 
F|--------------------------------|--------------------------------| 
C|--------------------------------|--------------------------------| 
G|--------------------------------|--------------------------------| 
C|0-------------------------------|(0)-----------------------------| 


  Fade up high C note 

D|22------------------------------|(22)----------------------------| 
A|--------------------------------|--------------------------------| 
F|--------------------------------|--------------------------------| 
C|--------------------------------|--------------------------------| 
G|--------------------------------|--------------------------------| 
C|0-0-----------------------------|0-0-----------------------------| 



*********************************** 
| \   Slide down 
| ++  Overtone 
| ()  Sustain note from previous bar 
| x   Dead note 
*********************************** 
	  

Full key step upFull key step up
Half key step upHalf key step up
Half key step downHalf key step down
Full key step downFull key step down
Search Paypal
auto scroll beats size up size down change color hide chords drawings
tab show chords e-chords YouTube Clip e-chords hide all tabs e-chords go to top tab