Porcupine Tree

Prodigal

Porcupine Tree

tabs Intermediate intermediate

by  JOV-CORREA

save to print version add songbook text version e-mail correct tuner
chordsukulelecavacokeyboardtabbassdrumsharmonicaflute Guitar Pro
close

there isn't a video lesson for this song

chords

Prodigal

	  		|----------------|----------------------|-----------|------------------|| 
|----------------|----------------------|-----------|------------------|| 
|-^7----6----(6)S|=5----(5)----------7--|-7----6----|-5-(5)s4s2----0---|| 
|-^7-------------|----------5-5-5s7-(7)-|-7---------|--------------0---|| 
|----------------|----------------------|-----------|------------------|| 
|----------------|----------------------|-----------|------------------|| 

|------------|------------------------|---------------|--------------------| 
|------------|------------------------|---------------|--------------/12\--| 
|-/7----6----|-5----(5)------------7--|-7----6----(6)s|=5-(5)s4s5----/12\--| 
|-/7---------|----------(5)-5-5s7-(7)-|---------------|--------------/12\--| 
|------------|------------------------|---------------|--------------------| 
|------------|------------------------|---------------|--------------------| 

|-------------|------------------------| 
|-(7)---------|------------------------| 
|--7-----6----|-5----(5)------------7--| 
|--7----------|----------(5)-5-5s7-(7)-| 
|-------------|------------------------| 
|-------------|------------------------| 

|-------------|------------------------| 
|-------------|------------------------| 
|-------------|------------------------| 
|-------------|------------------------| 
|-------------|------------------------| 
|-------------|------------------------| 

|-------------------------|-----------------------------| 
|-------------------------|-----------------------------| 
|-7-----------6-----------|-5-(5)s4s2-------------0-----| 
|-7-----------------------|-----------------------0-----| 
|-------------------------|-----------------------------| 
|-------------------------|-----------------------------| 

|-------------------------|-----------------------------| 
|---7-7-7s8s7---7-7-7s8s7-|----5--5-5s6s5s6s5s6s5-5-3---| 
|-------------------------|-----------------------------| 
|-------------------------|-----------------------------| 
|-------------------------|-----------------------------| 
|-------------------------|-----------------------------| 

|------------|----------------------|---------------|--------------------| 
|------------|----------------------|---------------|--------------/12\--| 
|-/7----6----|-5----(5)-----------7-|-7----6----(6)s|=5-(5)s4s5----/12\--| 
|-/7---------|----------(5)-5-5s7---|---------------|--------------/12\--| 
|------------|----------------------|---------------|--------------------| 
|------------|----------------------|---------------|--------------------| 

|------------|----------------------|---------------|--------------------| 
|--3---------|----------------------|---------------|--------------------| 
|------------|----------------------|---------------|--------------------| 
|------------|----------------------|---------------|--------------------| 
|------------|----------------------|---------------|--------------------| 
|------------|----------------------|---------------|--------------------| 

|---------------------|------------------------------------| 
|---------------------|------------------------------------| 
|-7-------6-----------|--5---------------(5)------------7--| 
|---------------------|----------------------(5)-5-5s7-(7)-| 
|---------------------|------------------------------------| 
|---------------------|------------------------------------| 

|---------------------|------------------------------------| 
|----/15-----/14-(14)s|=13---/13-(13)s12-10--------8-------| 
|---------------------|------------------------------------| 
|---------------------|------------------------------------| 
|---------------------|------------------------------------| 
|---------------------|------------------------------------| 

|-------------------------|----------------------------|| 
|-------------------------|----------------------------|| 
|-7-----------6-----------|-5-(5)s4s2-------------0----|| 
|-7-----------------------|-----------------------0----|| 
|-------------------------|----------------------------|| 
|-------------------------|----------------------------|| 

|-------------------------|----------------------------|| 
|---7-7-7s8s7-----7-7s8s7-|----5--5-5s6s5s6s5s6s5-5-3--|| 
|-------------------------|----------------------------|| 
|-------------------------|----------------------------|| 
|-------------------------|----------------------------|| 
|-------------------------|----------------------------|| 

|---------------------|-----------------------------------------| 
|-10------------------|-10s12-(12)-(12)---(12)-----13s12-(12)---| 
|-10------------------|-10s12--12--(12)---(12)------------12----| 
|-10------------------|-------------12----(12)------------------| 
|---------------------|-----------------------------------------| 
|---------------------|-----------------------------------------| 

|------------------------| 
|-12s==10----------------| 
|-12s==10----------------| 
|------------------------| 
|------------------------| 
|------------------------| 

|---------------------------------------|----------------------| 
|-10s12-(12)-(12)---(12)-----(12)s======|=3---------------3----| 
|-10s12--12--(12)---(12)-----(12)s======|=3--------------(3)---| 
|-------------12----(12)-----(12)s======|=3--------------(3)---| 
|---------------------------------------|----------------------| 
|---------------------------------------|----------------------| 

|-------------------------|------------------------------|| 
|-3---------------5-(5)s3s|=2---------------------2/-----|| 
|-------------------------|----------------------(2)/----|| 
|-------------------------|------------------------------|| 
|-------------------------|------------------------------|| 
|-------------------------|------------------------------|| 

|---------------|----------------------|-----------|-----------------|| 
|---------------|----------------------|-----------|-----------------|| 
|-7----6----(6)S|=5----(5)----------7--|-7----6----|-5-(5)s4s2----0--|| 
|-7-------------|----------5-5-5s7-(7)-|-7---------|--------------0--|| 
|---------------|----------------------|-----------|-----------------|| 
|---------------|----------------------|-----------|-----------------|| 

|------------|------------------------|-----------|--------------------| 
|------------|------------------------|-----------|--------------/12\--| 
|-/7----6----|-5----(5)------------7--|-7----6----|-5-(5)s4s2----/12\--| 
|-/7---------|----------(5)-5-5s7-(7)-|-----------|--------------/12\--| 
|------------|------------------------|-----------|--------------------| 
|------------|------------------------|-----------|--------------------| 

|----------------------|----------------------------------| 
|----------------------|----------------------------------| 
|-7-------6------------|-5--------------(5)------------7--| 
|-7--------------------|--------------------(5)-5-5s7-(7)-| 
|----------------------|----------------------------------| 
|----------------------|----------------------------------| 

|----------------------|----------------------------------| 
|----/15-----/14-(14)\-|----/13-(13)s12-10--------8-------| 
|----------------------|----------------------------------| 
|----------------------|----------------------------------| 
|----------------------|----------------------------------| 
|----------------------|----------------------------------| 

|-------------------------|----------------------------|| 
|-------------------------|----------------------------|| 
|-7-----------6-----------|-5-(5)s4s2-------------0----|| 
|-7-----------------------|-----------------------0----|| 
|-------------------------|----------------------------|| 
|-------------------------|----------------------------|| 

|-------------------------|----------------------------|| 
|---7-7-7s8s7-----7-7s8s7-|----5--5-5s6s5s6s5s6s5-5-3--|| 
|-------------------------|----------------------------|| 
|-------------------------|----------------------------|| 
|-------------------------|----------------------------|| 
|-------------------------|----------------------------|| 

|---------------------|-----------------------------------------| 
|-10------------------|-10s12-(12)-(12)---(12)-----13s12-(12)---| 
|-10------------------|-10s12--12--(12)---(12)------------12----| 
|-10------------------|-------------12----(12)------------------| 
|---------------------|-----------------------------------------| 
|---------------------|-----------------------------------------| 

|---------------------|-----------------------------------------| 
|--1------------------|-----------------------------------------| 
|---------------------|-----------------------------------------| 
|---------------------|-----------------------------------------| 
|---------------------|-----------------------------------------| 
|---------------------|-----------------------------------------| 

|------------------------| 
|-12s==10----------------| 
|-12s==10----------------| 
|------------------------| 
|------------------------| 
|------------------------| 

|------------------------| 
|------------------------| 
|------------------------| 
|------------------------| 
|------------------------| 
|------------------------| 

|---------------------------------------|----------------------| 
|-10s12-(12)-(12)---(12)-----(12)s======|=3---------------3----| 
|-10s12--12--(12)---(12)-----(12)s======|=3--------------(3)---| 
|-------------12----(12)-----(12)s======|=3--------------(3)---| 
|---------------------------------------|----------------------| 
|---------------------------------------|----------------------| 

|-------------------------|------------------------------|| 
|-3---------------5-(5)s3s|=2--------------------(2)/----|| 
|-------------------------|------------------------------|| 
|-------------------------|------------------------------|| 
|-------------------------|------------------------------|| 
|-------------------------|------------------------------|| 

||-------------6-6-6-6-5-x-x-|-7--7-7-5-3-3--------(3)----|| 
||o------------6-6-6-6-7-x-x-|-8--8-8-7-3-3--------(3)---o|| 
||------7------7-7-7-7-7-x-x-|-7--7-7-7-5-5--------(5)----|| 
||------7--------------7-----|--------7-5-5--------(5)----|| 
||o-5-5----5-----------------|---------------------------o|| 
||---------------------------|----------------------------|| 

||--5-5-5--5---6-6-6-6-5-x-x-|-7------5-3-3--(3)-3--3--3--|| 
||o-7-7-7--7---6-6-6-6-7-x-x-|-8------7-3-3--(3)-3--3--3-o|| 
||--7-7-7--7---7-7-7-7-7-x-x-|-7------7-5-5--(5)-5--5--5--|| 
||--7-7-7--7---8-8-8-8-7-x-x-|--------7-5-5--(5)-5--5--5--|| 
||o-5-5-5--5-----------------|---------------------------o|| 
||---------------------------|----------------------------|| 

|----------------------|----------------------|| 
|----------------------|----------------------|| 
|-4--------------------|-3--------------------|| 
|-4--------------------|-3--------------------|| 
|-2--------------------|-1--------------------|| 
|----------------------|----------------------|| 

|--------------------|-------------------------------| 
|-/15----14----------|-12s13--12---------------------| 
|-------------14-----|------------------12-(12)------| 
|--------------------|-------------------------------| 
|--------------------|-------------------------------| 
|--------------------|-------------------------------| 

|--------------------|-------------------------------| 
|--------------------|-------------------------------| 
|---7-----6------(6)S|=====5------(5)-------------7--| 
|---7----------------|-------------------5---5s7-(7)-| 
|--------------------|-------------------------------| 
|--------------------|-------------------------------| 

|-------------------|-------------------------------| 
|-------------------|-------------------------------| 
|-(12)-11-----------|-------------------------------| 
|-------------12----|-(12)----------/15--14---------| 
|-------------------|----------12-----------15---12-| 
|-------------------|-------------------------------| 

|-------------------|-------------------------------| 
|-------------------|-------------------------------| 
|---7-------6-------|---5--(5)s=4s2------------0----| 
|---7---------------|--------------------------0----| 
|-------------------|-------------------------------| 
|-------------------|-------------------------------| 

|------------------12-----17--|-(17)S20-19------------------------------------------| 
|---------------15-----15-----|------------20----18-17---------------15----------17-| 
|----------/14----------------|---------------19-----------17s====14------14--------| 
|-----------------------------|-----------------------------------------------------| 
|-(12)-12---------------------|-----------------------------------------------------| 
|-----------------------------|-----------------------------------------------------| 

|-----------------------------|-----------------------------------------------------| 
|-----------------------------|-----------------------------------------------------| 
|--/7------------6------------|---5--------------------(5)--------------------7-----| 
|--/7-------------------------|-------------------------------(5)--5--5s7----(7)----| 
|-----------------------------|-----------------------------------------------------| 
|-----------------------------|-----------------------------------------------------| 

|-14p12----------------------------------|-------------------------------|| 
|---------------15-(15)-14---------------|-------------------------------|| 
|-------14-(14)------------14------14h16h|=17------16-(16)---------------|| 
|----------------------------------------|-------------------17----------|| 
|----------------------------------------|-------------------------------|| 
|----------------------------------------|-------------------------------|| 

|----------------------------------------|-------------------------------|| 
|----------------------------------------|-----------------------/12\----|| 
|--7-----------------6---------(6)s======|==5--(5)s=4s==5--------/12\----|| 
|----------------------------------------|-----------------------/12\----|| 
|----------------------------------------|-------------------------------|| 
|----------------------------------------|-------------------------------|| 

|-----------|----------|----------|------| 
|-----------|----------|----------|------| 
|-----------|----------|----------|------| 
|-16--------|----------|----------|------| 
|-----------|----------|----------|------| 
|-----------|----------|----------|------| 

|---------------------|-------------------------| 
|---------------------|-------------------------| 
|---------------------|-------------------------| 
|---------------------|-------------------------| 
|---------------------|-------------------------| 
|---------------------|-------------------------| 

|---------------------|-------------------------| 
|----/15-----/14-(14)s|=13---/13-(13)s12-10--8--| 
|---------------------|-------------------------| 
|---------------------|-------------------------| 
|---------------------|-------------------------| 
|---------------------|-------------------------| 

|-------------------------|-----------------------3----|| 
|-------------------------|-----------------------3----|| 
|-------------------------|-----------------------0----|| 
|-------------------------|-----------------------0----|| 
|-------------------------|----------------------------|| 
|-------------------------|----------------------------|| 

|-------------------------|----------------------------|| 
|---7-7-7s8s7-----7-7s8s7-|---5-5-5s6s5s6s5s6s5-5-3----|| 
|-------------------------|----------------------------|| 
|-------------------------|----------------------------|| 
|-------------------------|----------------------------|| 
|-------------------------|----------------------------|| 

|------------------------| 
|-10--------------10-----| 
|-10--------------10-----| 
|-10--------------10-----| 
|------------------------| 
|------------------------| 

|-----------------------------------------|------------------------| 
|-10s12-(12)-(12)---(12)-----13s12-(12)---|-12s==10----------------| 
|-10s12--12--(12)---(12)------------12----|-12s==10----------------| 
|-------------12----(12)------------------|------------------------| 
|-----------------------------------------|------------------------| 
|-----------------------------------------|------------------------| 

|-----------------------------------|----------------------| 
|-10s12-(12)-(12)---(12)-----(12)s==|=3---------------3----| 
|-10s12--12--(12)---(12)-----(12)s==|=3--------------(3)---| 
|-------------12----(12)-----(12)s==|=3--------------(3)---| 
|-----------------------------------|----------------------| 
|-----------------------------------|----------------------| 

|--------------------------|----------------------------|| 
|-3---------------5--(5)s3S|=2------------------(2)/----|| 
|--------------------------|-2------------------(2)/----|| 
|--------------------------|-2------------------(2)/----|| 
|--------------------------|----------------------------|| 
|--------------------------|----------------------------|| 

||-------------6-6-6-6-5-x-x-|-7--7-7-5-3-3--------(3)----|| 
||o------------6-6-6-6-7-x-x-|-8--8-8-7-3-3--------(3)---o|| 
||------7------7-7-7-7-7-x-x-|-7--7-7-7-5-5--------(5)----|| 
||------7--------------7-----|--------7-5-5--------(5)----|| 
||o-5-5----5-----------------|---------------------------o|| 
||---------------------------|----------------------------|| 

||--5-5-5--5---6-6-6-6-5-x-x-|-7------5-3-3--(3)-3--3--3--|| 
||o-7-7-7--7---6-6-6-6-7-x-x-|-8------7-3-3--(3)-3--3--3-o|| 
||--7-7-7--7---7-7-7-7-7-x-x-|-7------7-5-5--(5)-5--5--5--|| 
||--7-7-7--7---8-8-8-8-7-x-x-|--------7-5-5--(5)-5--5--5--|| 
||o-5-5-5--5-----------------|---------------------------o|| 
||---------------------------|----------------------------|| 

|----------------------|----------------------|| 
|----------------------|----------------------|| 
|-4--------------------|-3--------------------|| 
|-4--------------------|-3--------------------|| 
|-2--------------------|-1--------------------|| 
|----------------------|----------------------|| 

|---------------15b17======(15)-------| 
|-/15---15\---------------------------| 
|-------------------------------------| 
|-------------------------------------| 
|-------------------------------------| 
|-------------------------------------| 

|----------------6-----6-6---6--5-x-x-| 
|----------------6-----6-6---6--7-x-x-| 
|--------7-------7-----7-7---7--7-x-x-| 
|--------7----------------------7-----| 
|---5-5-----5-------------------------| 
|-------------------------------------| 

|---5-5--5--5----6-----6-6---6--5-x-x-| 
|---7-7--7--7----6-----6-6---6--7-x-x-| 
|---7-7--7--7----7-----7-7---7--7-x-x-| 
|---7-7--7--7----8-----8-8---8--7-x-x-| 
|---5-5--5--5-------------------------| 
|-------------------------------------| 

|-(15)r======(15)-------------------------------------------| 
|-----------------------------------------------------------| 
|-----------------12b14====(12)r====(12)-12b14r(12)b14r(12)-| 
|-----------------------------------------------------------| 
|-----------------------------------------------------------| 
|-----------------------------------------------------------| 

|---7--7-7-5-------3-----3----------------------(3)---------| 
|---8--8-8-7-------3-----3----------------------(3)---------| 
|---7--7-7-7-------5-----5----------------------(5)---------| 
|----------7-------5-----5----------------------(5)---------| 
|-----------------------------------------------------------| 
|-----------------------------------------------------------| 

|---7------5-------3-----3------(3)---3----------3-------3--| 
|---8------7-------3-----3------(3)---3----------3-------3--| 
|---7------7-------5-----5------(5)---5----------5-------5--| 
|----------7-------5-----5------(5)---5----------5-------5--| 
|-----------------------------------------------------------| 
|-----------------------------------------------------------| 

|----------------------------------------------------------------| 
|----------------------------------------------------------------| 
|-12b14r(12)p10--------------------------------------------------| 
|---------------12--12--12-(12)\---------------------------------| 
|-------------------------------------/8--------------------8----| 
|------------------------------------------10--------(10)-----10-| 

|----------------------------------------6-----6-6-6------5-x--x-| 
|----------------------------------------6-----6-6-6------7-x--x-| 
|--------------------7-------------------7-----7-7-7------7-x--x-| 
|--------------------7------------------------------------7------| 
|--5----------5------------------5-------------------------------| 
|----------------------------------------------------------------| 

|--5----------5------5-----------5-------6-----6-6-6------5-x--x-| 
|--7----------7------7-----------7-------6-----6-6-6------7-x--x-| 
|--7----------7------7-----------7-------7-----7-7-7------7-x--x-| 
|--7----------7------7-----------7-------8-----8-8-8------7-x--x-| 
|--5----------5------5-----------5-------------------------------| 
|----------------------------------------------------------------| 

|--------------------------------------------------------------------------| 
|--------------------------------------------------------------------------| 
|--------------------------------------------------------------------------| 
|--------------------------------------------------------------------------| 
|-------8----10b11r(10)-10b11r(10)b11r(10)-(10)-10b11r(10)---10-----8------| 
|-8--10---10-----------------------------------------------8----10-----10--| 

|-7---7-7--5---------3---3-----------------------------------------(3)-----| 
|-8---8-8--7---------3---3-----------------------------------------(3)-----| 
|-7---7-7--7---------5---5-----------------------------------------(5)-----| 
|----------7---------5---5-----------------------------------------(5)-----| 
|--------------------------------------------------------------------------| 
|--------------------------------------------------------------------------| 

|-7--------5---------3---3-----------------------------(3)----3-----3---3--| 
|-8--------7---------3---3-----------------------------(3)----3-----3---3--| 
|-7--------7---------5---5-----------------------------(5)----5-----5---5--| 
|----------7---------5---5-----------------------------(5)----5-----5---5--| 
|--------------------------------------------------------------------------| 
|--------------------------------------------------------------------------| 

|-------------------------------------| 
|-------------------------------------| 
|-------------------7-7---7---7---7---| 
|-------------------------------------| 
|-8-----------------------------------| 
|---10-10-10\-------------------------| 

|-------------------6-6-6-6-5---x---x-| 
|-------------------6-6-6-6-7---x---x-| 
|----------7--------7-7-7-7-7---x---x-| 
|----------7----------------7---------| 
|-5-----5-------5---------------------| 
|-------------------------------------| 

|-5-----5--5----5---6-6-6-6-5---x---x-| 
|-7-----7--7----7---6-6-6-6-7---x---x-| 
|-7-----7--7----7---7-7-7-7-7---x---x-| 
|-7-----7--7----7---8-8-8-8-7---x---x-| 
|-5-----5--5----5---------------------| 
|-------------------------------------| 

|-----------------10----12-10-----12h13h====15---| 
|--------------------10--------10----------------| 
|-7------(7)/------------------------------------| 
|------------------------------------------------| 
|------------------------------------------------| 
|------------------------------------------------| 

|-7--7-7--5-----3--3--------------------(3)------| 
|-8--8-8--7-----3--3--------------------(3)------| 
|-7--7-7--7-----5--5--------------------(5)------| 
|---------7-----5--5--------------------(5)------| 
|------------------------------------------------| 
|------------------------------------------------| 

|-7-------5-----3--3-------(3)--3--------3-----3-| 
|-8-------7-----3--3-------(3)--3--------3-----3-| 
|-7-------7-----5--5-------(5)--5--------5-----5-| 
|---------7-----5--5-------(5)--5--------5-----5-| 
|------------------------------------------------| 
|------------------------------------------------| 

|------------------------------------------------| 
|-10-13-13-------15------17------18------17-x----| 
|----------12---------14------14------14------14-| 
|------------------------------------------------| 
|------------------------------------------------| 
|------------------------------------------------| 

|------------------------------6--6-6--6--5-x--x-| 
|------------------------------6--6-6--6--7-x--x-| 
|-------------7----------------7--7-7--7--7-x--x-| 
|-------------7---------------------------7------| 
|--5--5-------------------5----------------------| 
|------------------------------------------------| 

|--5--5-------5-----------5----6--6-6--6--5-x--x-| 
|--7--7-------7-----------7----6--6-6--6--7-x--x-| 
|--7--7-------7-----------7----7--7-7--7--7-x--x-| 
|--7--7-------7-----------7----8--8-8--8--7-x--x-| 
|--5--5-------5-----------5----------------------| 
|------------------------------------------------| 

|-17--------(17)\---/15-15----14--15-14-----------| 
|---------------------------------------17-15-----| 
|--------------------------14------------------14-| 
|-------------------------------------------------| 
|-------------------------------------------------| 
|-------------------------------------------------| 

|--7--7-7-5-------3---3--------------------(3)----| 
|--8--8-8-7-------3---3--------------------(3)----| 
|--7--7-7-7-------5---5--------------------(5)----| 
|---------7-------5---5--------------------(5)----| 
|-------------------------------------------------| 
|-------------------------------------------------| 

|--7------5-------3---3-------(3)-----3-----3---3-| 
|--8------7-------3---3-------(3)-----3-----3---3-| 
|--7------7-------5---5-------(5)-----5-----5---5-| 
|---------7-------5---5-------(5)-----5-----5---5-| 
|-------------------------------------------------| 
|-------------------------------------------------| 

|-------------------------------------| 
|-17----15-----------------13-12------| 
|----------14------12-10-----------12-| 
|-------------------------------------| 
|-------------------------------------| 
|-------------------------------------| 

|-------------------6--6-6--6--5-x--x-| 
|-------------------6--6-6--6--7-x--x-| 
|-----------7-------7--7-7--7--7-x--x-| 
|-----------7------------------7------| 
|--5--5--------5----------------------| 
|-------------------------------------| 

|--5--5-----5--5----6--6-6--6--5-x--x-| 
|--7--7-----7--7----6--6-6--6--7-x--x-| 
|--7--7-----7--7----7--7-7--7--7-x--x-| 
|--7--7-----7--7----8--8-8--8--7-x--x-| 
|--5--5-----5--5----------------------| 
|-------------------------------------| 

|-10----------10b12==(10)r(10)-10----12b13==(12)r(12)-13p10-10--10-| 
|-------13------------------------10-------------------------------| 
|----------12------------------------------------------------------| 
|------------------------------------------------------------------| 
|------------------------------------------------------------------| 
|------------------------------------------------------------------| 

|--7--7--7--5----------3----3-------------------------------(3)----| 
|--8--8--8--7----------3----3-------------------------------(3)----| 
|--7--7--7--7----------5----5-------------------------------(5)----| 
|-----------7----------5----5-------------------------------(5)----| 
|------------------------------------------------------------------| 
|------------------------------------------------------------------| 

|--7--------5----------3----3--------(3)-----------3---------3---3-| 
|--8--------7----------3----3--------(3)-----------3---------3---3-| 
|--7--------7----------5----5--------(5)-----------5---------5---5-| 
|-----------7----------5----5--------(5)-----------5---------5---5-| 
|------------------------------------------------------------------| 
|------------------------------------------------------------------| 

|-----------------------------------------------------------------| 
|-----------------------------------------------------------------| 
|-12b13r(12)-12b13r(12)-12p10------10-10--------------------------| 
|-----------------------------12----------12-------------10-10-12-| 
|------------------------------------------------(0)-/12----------| 
|-----------------------------------------------------------------| 

|--------------------------------------------6-6--6----6--5--x--x-| 
|--------------------------------------------6-6--6----6--7--x--x-| 
|------------------------7-------------------7-7--7----7--7--x--x-| 
|------------------------7--------------------------------7-------| 
|--5----------5------------------------5--------------------------| 
|-----------------------------------------------------------------| 

|--5----------5----------5-------------5-----6-6--6----6--5--x--x-| 
|--7----------7----------7-------------7-----6-6--6----6--7--x--x-| 
|--7----------7----------7-------------7-----7-7--7----7--7--x--x-| 
|--7----------7----------7-------------7-----8-8--8----8--7--x--x-| 
|--5----------5----------5-------------5--------------------------| 
|-----------------------------------------------------------------| 

|-----------------------------------------------------------------------------------| 
|-----------------------------------------------------------------------------------| 
|-10-----10-12b12.5---10-10-12b12.5---10-12b13r(12)b13r(12)-10p=0h10p0-10-10--------| 
|-----12---------------------------------------------------------------------12-----| 
|-----------------------------------------------------------------------------------| 
|-----------------------------------------------------------------------------------| 

|--7---7--7---------5-----3---------3----------------------------------------(3)----| 
|--8---8--8---------7-----3---------3----------------------------------------(3)----| 
|--7---7--7---------7-----5---------5----------------------------------------(5)----| 
|-------------------7-----5---------5----------------------------------------(5)----| 
|-----------------------------------------------------------------------------------| 
|-----------------------------------------------------------------------------------| 

|--7----------------5-----3---------3-----------------------(3)---------3-----3--3--| 
|--8----------------7-----3---------3-----------------------(3)---------3-----3--3--| 
|--7----------------7-----5---------5-----------------------(5)---------5-----5--5--| 
|-------------------7-----5---------5-----------------------(5)---------5-----5--5--| 
|-----------------------------------------------------------------------------------| 
|-----------------------------------------------------------------------------------| 

|----------------------------|---------------------------| 
|----------------------------|---------------------------| 
|----------------------------|---------------------------| 
|-12\------------------------|---------------------------| 
|----------------------------|---------------------------| 
|----------------------------|---------------------------| 

|--------------6-6-6-6-5-x-x-|-7--7-7-5-3-3--------(3)---| 
|--------------6-6-6-6-7-x-x-|-8--8-8-7-3-3--------(3)---| 
|-------7------7-7-7-7-7-x-x-|-7--7-7-7-5-5--------(5)---| 
|-------7--------------7-----|--------7-5-5--------(5)---| 
|--5--5----5-----------------|---------------------------| 
|----------------------------|---------------------------| 

|--5--5-5--5---6-6-6-6-5-x-x-|-7------5-3-3--(3)-3--3--3-| 
|--7--7-7--7---6-6-6-6-7-x-x-|-8------7-3-3--(3)-3--3--3-| 
|--7--7-7--7---7-7-7-7-7-x-x-|-7------7-5-5--(5)-5--5--5-| 
|--7--7-7--7---8-8-8-8-7-x-x-|--------7-5-5--(5)-5--5--5-| 
|--5--5-5--5-----------------|---------------------------| 
|----------------------------|---------------------------| 

|------------6-6-6-6-5-x-x-|-7--7-7-5-3-3--------(3)---| 
|------------6-6-6-6-7-x-x-|-8--8-8-7-3-3--------(3)---| 
|-----7------7-7-7-7-7-x-x-|-7--7-7-7-5-5--------(5)---| 
|-----7--------------7-----|--------7-5-5--------(5)---| 
|-5-5----5-----------------|---------------------------| 
|--------------------------|---------------------------| 

|-5-5-5--5---6-6-6-6-5-x-x-|-7------5-3-3--(3)-3--3--3-| 
|-7-7-7--7---6-6-6-6-7-x-x-|-8------7-3-3--(3)-3--3--3-| 
|-7-7-7--7---7-7-7-7-7-x-x-|-7------7-5-5--(5)-5--5--5-| 
|-7-7-7--7---8-8-8-8-7-x-x-|--------7-5-5--(5)-5--5--5-| 
|-5-5-5--5-----------------|---------------------------| 
|--------------------------|---------------------------| 

|-5--------|-(5)--------|------*| 
|-5--------|-(5)--------|------*| 
|-7--------|-(7)--------|------*| 
|-7--------|-(7)--------|------*| 
|-5--------|-(5)--------|------*| 
|----------|------------|------*| 

|-5--------|-(5)--------|------*| 
|-5--------|-(5)--------|------*| 
|-7--------|-(7)--------|------*| 
|-7--------|-(7)--------|------*| 
|-5--------|-(5)--------|------*| 
|----------|------------|------*| 
		  

See also:

tabs Van Halen - Pretty Woman tabs The Strokes - Last Nite tabs Guns N' Roses - Welcome to The Jungle tabs Foo Fighters - The Pretender tabs 4 Non Blondes - What's Up? tabs Aerosmith - I Don't Want To Miss A Thing
e-chords

Other versions:

tabs Porcupine Tree - Prodigal tabs Gs Megaphone - Prodigal Dad tabs Iron Maiden - Prodigal Son tabs The Rolling Stones - Prodigal Son tabs Iron Maiden - Prodigal Son (ver. 2)
auto scroll beats size up size down change color hide chords drawings
tab show chords e-chords YouTube Clip e-chords hide all tabs e-chords go to top tab

share