Poor Old Lu

Closing Down

Poor Old Lu

tabs

by  AMAN_CLAUDINO

save to print version add songbook text version e-mail correct tuner
chordsukulelecavacokeyboardtabbassdrumsharmonicaflute Guitar Pro
close

there isn't a video lesson for this song

chords

Closing Down

	  		 
Intro: Guitar 1 & 2 

   F 
e|---1-----1-----1---2-1--| 
B|-2---1-2---1-2---1------| 
G|------------------------|    x5  
D|------------------------| 
A|------------------------| 
E|------------------------| 

6th time go to this:  

e|---1-----1-----1-2--2-1-| 
B|-2---1-2---1-2----------| 
G|------------------------|     
D|------------------------|    x1 (Acoustic Guitar out) 
A|------------------------| 
E|------------------------| 

    F5                                  C#5             D#5 

e|---------------------------------------------------------------------------| 
B|---------------------------------------------------------------------------| 
G|--10---10-10-x-x----10---10-10-x-x----6----6-6-x-x----8----8-8-x-x---------| 
D|--10---10-10-x-x----10---10-10-x-x----6----6-6-x-x----8----8-8-x-x---------|  x2 (Guitar 1) 
A|--8----8--8--x-x----8----8--8--x-x----4----4-4-x-x----6----6-6-x-x---------| 
E|---------------------------------------------------------------------------| 

Guitar 3 in 
   F5                                  C#5             D#5 

e|---------------------------------------------------------------------------| 
B|---------------------------------------------------------------------------| 
G|--10---10-10-x-x----10---10-10-x-x----6----6-6-x-x----8----8-8-x-x---------| 
D|--10---10-10-x-x----10---10-10-x-x----6----6-6-x-x----8----8-8-x-x---------|  x2 (Guitar 1 & 3) 
A|--8----8--8--x-x----8----8--8--x-x----4----4-4-x-x----6----6-6-x-x---------| 
E|---------------------------------------------------------------------------| 

verse 1: (Guitar 1 & 2) 

   F 
e|---1-----1-----1---2-1--| 
B|-2---1-2---1-2---1------| 
G|------------------------|    x5  
D|------------------------| 
A|------------------------| 
E|------------------------| 

Good night 
Sleep tight 
The sun is set and day is night 
Just you rest it's all alright 

e|---1-----1-----1-2--2-1-| 
B|-2---1-2---1-2----------| 
G|------------------------|     
D|------------------------|    x1 End Rhythm Figure 1 (Acoustic Guitar out) 
A|------------------------| 
E|------------------------| 

Chorus: 

Guitar 3 in 
   F5                                  C#5             D#5 

e|---------------------------------------------------------------------------| 
B|---------------------------------------------------------------------------| 
G|--10---10-10-x-x----10---10-10-x-x----6----6-6-x-x----8----8-8-x-x---------| 
D|--10---10-10-x-x----10---10-10-x-x----6----6-6-x-x----8----8-8-x-x---------|  x4 (Guitar 1 & 3) 
A|--8----8--8--x-x----8----8--8--x-x----4----4-4-x-x----6----6-6-x-x---------| 
E|---------------------------------------------------------------------------| 

Ooooh, ah 
Ooooh, ah 

    A#5                F5                D#5 
e|-----------------------------------------------------| 
B|-----------------------------------------------------| 
G|---------------------10---10-10-x-x----8----8-8-x-x--|    x6 (Guitar 3) 
D|--8--8--8--8--8--8---10---10-10-x-x----6----8-8-x-x--| 
A|--8--8--8--8--8--8---8----8--8--x-x----6----6-6-x-x--| 
E|--6--6--6--6--6--6-----------------------------------| 

But it's the same 
Day to day 
Why can't I 
Sleep this away 
A headache 
  F5       D#5      A#5 
e|--------------------------------------| 
B|--------------------------------------| 
G|-10-10-10-8--8--8---------------------|    x2 (Guitar 3) 
D|-10-10-10-8--8--8--8--8--8--8--8--8---| 
A|-8--8--8--6--6--6--8--8--8--8--8--8---| 
E|-------------------6--6--6--6--6--6---| 

       (Keeps me awake) 
Is my brain dead 
       (From trusting too much in me) 
I have to say 
      
  F5       D#5      A#5              (hold last note for another measure) 
e|---------------------------------------------------------| 
B|---------------------------------------------------------| 
G|-10-10-10-8--8--8----------------------------------------|    x1 (Guitar 3) 
D|-10-10-10-8--8--8--8--8--8--8--8--8----------------------| 
A|-8--8--8--6--6--6--8--8--8--8--8--8----------------------| 
E|-------------------6--6--6--6--6--6----------------------| 

  (I've got to give this up now) 
He said He'd hear me now 

verse 1:  

   F 
e|---1-----1-----1---2-1--| 
B|-2---1-2---1-2---1------| 
G|------------------------|    x5 (Guitar 1 & 2) 
D|------------------------| 
A|------------------------| 
E|------------------------| 

Good night 
Sleep tight 
I wish I were 
I wish I might 

e|---1-----1-----1-2--2-1-| 
B|-2---1-2---1-2----------| 
G|------------------------|     
D|------------------------|    x1 (Acoustic Guitar out) 
A|------------------------| 
E|------------------------| 

Chorus: 

Guitar 3 in 
   F5                                  C#5             D#5 

e|---------------------------------------------------------------------------| 
B|---------------------------------------------------------------------------| 
G|--10---10-10-x-x----10---10-10-x-x----6----6-6-x-x----8----8-8-x-x---------| 
D|--10---10-10-x-x----10---10-10-x-x----6----6-6-x-x----8----8-8-x-x---------|  x4 (Guitar 1 & 3) 
A|--8----8--8--x-x----8----8--8--x-x----4----4-4-x-x----6----6-6-x-x---------| 
E|---------------------------------------------------------------------------| 

Ooooh, ah 
Ooooh, ah 

    A#5                F5                D#5 
e|-----------------------------------------------------| 
B|-----------------------------------------------------| 
G|---------------------10---10-10-x-x----8----8-8-x-x--|    x6 (Guitar 3) 
D|--8--8--8--8--8--8---10---10-10-x-x----6----8-8-x-x--| 
A|--8--8--8--8--8--8---8----8--8--x-x----6----6-6-x-x--| 
E|--6--6--6--6--6--6-----------------------------------| 

But it's the same 
Day to day 
And I can't 
Sleep this away 
A heartache 
  F5       D#5      A#5 
e|--------------------------------------| 
B|--------------------------------------| 
G|-10-10-10-8--8--8---------------------|    x2 (Guitar 3) 
D|-10-10-10-8--8--8--8--8--8--8--8--8---| 
A|-8--8--8--6--6--6--8--8--8--8--8--8---| 
E|-------------------6--6--6--6--6--6---| 

       (Keeps me awake) 
Is my brain dead 
       (From trusting too much in me) 
I have to say 
      
  F5       D#5      A#5              (hold last note for another measure) 
e|---------------------------------------------------------| 
B|---------------------------------------------------------| 
G|-10-10-10-8--8--8----------------------------------------|    x1 (Guitar 3) 
D|-10-10-10-8--8--8--8--8--8--8--8--8----------------------| 
A|-8--8--8--6--6--6--8--8--8--8--8--8----------------------| 
E|-------------------6--6--6--6--6--6----------------------| 

  (I've got to give this up now) 
He said He'd hear me now 

Bridge: 

   F5            C#5    D#5 
e|-------------------------| 
B|-------------------------| 
G|-10--1010-x-x--6-x-x--8--|   x3 (Guitar 1) 
D|-10--1010-x-x--6-x-x--8--| 
A|-8---8-8--x-x--4-x-x--6--| 
E|-------------------------| 

   F5            C#5    D#5 
e|-------------------------| 
B|-------------------------| 
G|-10--1010-x-x--6-x-x--8--|   x31 (Guitar 1 & 3) 
D|-10--1010-x-x--6-x-x--8--| 
A|-8---8-8--x-x--4-x-x--6--| 
E|-------------------------| 

   F5            C#5    D#5 (hold last note) 
e|-----------------------------------------| 
B|-----------------------------------------| 
G|-10--1010-x-x--6-x-x--8------------------|   x1 (Guitar 1 & 3) 
D|-10--1010-x-x--6-x-x--8------------------| 
A|-8---8-8--x-x--4-x-x--6------------------| 
E|-----------------------------------------| 

Outro: 

  F 
e|---1-----1-----1---2-1--| 
B|-2---1-2---1-2---1------| 
G|------------------------|    x5  
D|------------------------| 
A|------------------------| 
E|------------------------| 

6th time go to this:  

e|---1-----1-----1-2--2-1-| 
B|-2---1-2---1-2----------| 
G|------------------------|     
D|------------------------|    x1 (Acoustic Guitar out) 
A|------------------------| 
E|------------------------| 

   F5                                  C#5             D#5 

e|---------------------------------------------------------------------------| 
B|---------------------------------------------------------------------------| 
G|--10---10-10-x-x----10---10-10-x-x----6----6-6-x-x----8----8-8-x-x---------| 
D|--10---10-10-x-x----10---10-10-x-x----6----6-6-x-x----8----8-8-x-x---------|  x3 (Guitar 1) 
A|--8----8--8--x-x----8----8--8--x-x----4----4-4-x-x----6----6-6-x-x---------| 
E|---------------------------------------------------------------------------| 

   F5                                  C#5             D#5 

e|---------------------------------------------------------------------------| 
B|---------------------------------------------------------------------------| 
G|--10---10-10-x-x----10---10-10-x-x----6----6-6-x-x----8----8-8-x-x---------| 
D|--10---10-10-x-x----10---10-10-x-x----6----6-6-x-x----8----8-8-x-x---------|  x4 (Guitar 1 & 3) 
A|--8----8--8--x-x----8----8--8--x-x----4----4-4-x-x----6----6-6-x-x---------| 
E|---------------------------------------------------------------------------| 

Fade out 



************************************ 

| x  Dead note 

************************************ 
		  

Full key step upFull key step up
Half key step upHalf key step up
Half key step downHalf key step down
Full key step downFull key step down
hide glossary

See also:

tabs Deep Purple - Burn tabs Deep Purple - Lazy tabs Deep Purple - Deep Purple - Smoke On The Water tabs Deep Purple - Stormbringer tabs Deep Purple - Demon's Eye tabs Albert Hammond Jr - Holiday
e-chords

Other versions:

tabs Poor Old Lu - Closing Down
auto scroll beats size up size down change color hide chords drawings
tab show chords e-chords YouTube Clip e-chords hide all tabs e-chords go to top tab

share