Polarity

Digital Recluse

Polarity

tabs

by  ALYSLIMA

save to print version add songbook text version e-mail correct tuner
chordsukulelecavacokeyboardtabbassdrumsharmonicaflute Guitar Pro
close

there isn't a video lesson for this song

chords

Digital Recluse

	  		

TUNING: Dropped D Standard - E B G D A D 



(0:08 after a quick distortion slide. Play PALM MUTED) 

E|----------------|---------------|---------------|----------| 
B|----------------|---------------|---------------|----------| 
G|----------------|---------------|---------------|----------| 
D|----------------|---------------|---------------|----------| 
A|-----------5----|----------7----|----------5----|----5--7--| 
D|--4--4--4-----4-|-4--4--4-----4-|-4--4--4-----4-|-4--------|   (repeat 2x) 


(pause 0:18 distortion fuckin give er!) 


E|------|------|-----|-------| 
B|------|------|-----|-------| 
G|------|------|-----|-------| 
D|--0---|-2----|-4---|-0--7--| 
A|--0---|-2----|-4---|-0--7--| 
D|--0---|-2----|-4---|-0--7--| 


(0:25 clean Chorus and reverb and keep on going) 

E|-----------------------------------0--| 
B|--------2--------0--------2-----------| 
G|-----2--------2--------2--------2-----| 
D|--4--------4--------4--------0--------| 
A|--------------------------------------| 
D|--------------------------------------| 

(0:39) 

E|--------------------------| 
B|--------2--------0--2-----| 
G|-----2--------2-----2-----| 
D|--4--------4--------0--0--| 
A|-----------------------0--| 
D|-----------------------0--| 

(0:43 still Chorus and reverb) 

E|---------------------------------------------| 
B|---------------------------------------------| 
G|---------------------------------------------| 
D|--4---4-4-4---4---4-4-4---4---4-4-4---0---2--| 
A|--4---4-4-4---4---4-4-4---4---4-4-4---0---2--| 
D|--4---4-4-4---4---4-4-4---4---4-4-4---0---2--| 

(1:01 now change to distortion and Chorus and reverb. Slide up and down the neck before  
going into this riff. On CD I do the slide before second Chorus but sometimes live Ill  
do before first Chorus as well.) 

E|----------------------------------------------------| 
B|----------------------------------------------------| 
G|----------------------------------------------------| 
D|--4--4--4------4--4--4--------4--4--4---------------| 
A|--4--4--4--4v--4--4--4--5V----4--4--4--2p0--4v--2v--| 
D|--4--4--4------4--4--4--------4--4--4---------------| 

E|----------------------------------------------------| 
B|----------------------------------------------------| 
G|----------------------------------------------------| 
D|--4--4--4------4--4--4--------4--4--4---------------| 
A|--4--4--4--4v--4--4--4--5V----4--4--4--2p0--9v--7v--| 
D|--4--4--4------4--4--4--------4--4--4---------------| 

E|--------------------------------------------------| 
B|--------------------------------------------------| 
G|--------------------------------------------------| 
D|--4--4--4--7v--4--4--4--6v--4--4--4--4s---7V------| 
A|--4--4--4------4--4--4------4--4--4---------------| 
D|--4--4--4------4--4--4------4--4--4---------------| 

E|---------------------------------------------| 
B|---------------------------------------------| 
G|---------------------------------------------| 
D|--4--4--4------4--4--4----------11V----------| 
A|--4--4--4--4v--4--4--4--5s--12V--------------| 
D|--4--4--4------4--4--4-----------------------| 

(1:19) 

E|-----------------------| 
B|-----------------------| 
G|--6--0--------6--------| 
D|--6--0--2--4--6--0--2--| 
A|--4--0--2--4--4--0--2--| 
D|-----0--2--4-----0--2--| 

(Add in some delay) 

E|--14v--12v-----------------12v--14v--12v----------------------------12--14v--12v---------------| 
B|------------12v--14v----------------------12v--14v--------------12----------------12--10--12v--| 
G|----------------------14v---------------------------14--11--14---------------------------------| 
D|-----------------------------------------------------------------------------------------------| 
A|-----------------------------------------------------------------------------------------------| 
D|-----------------------------------------------------------------------------------------------| 

(Repeat everything again from verse at 0:25 onwards) 

(3:12-3:14 just jason chugging with the drum kick) 

(3:15 with Chorus delay distortion) 

E|--------------|--21--17--16----------| 
B|--------------|--------------17------| 
G|--------------|------------------18--| 
D|--4HR5--------|----------------------| 
A|--------4HR5--|----------------------| 
D|--------------|----------------------| 



E|--------------|--------------|--------------|-------------| 
B|--------------|--------------|--------------|-------------| 
G|-----------7--|-----------9--|-----------7--|-------7--9--| 
D|--4--4--4--7--|--4--4--4--9--|--4--4--4--7--|--4----7--9--| 
A|--4--4--4--5--|--4--4--4--7--|--4--4--4--5--|--4----5--7--| 
D|--4--4--4-----|--4--4--4-----|--4--4--4-----|--4----------| 



E|--------------|---------------|--------------|-------------| 
B|--------------|---------------|--------------|-------------| 
G|-----------8--|-----------10--|-----------8--|--12--10--8--| 
D|--4--4--4--x--|--4--4--4--x---|--4--4--4--x--|--x---x---x--| 
A|--4--4--4--6--|--4--4--4--8---|--4--4--4--6--|--10--8---6--| 
D|--4--4--4-----|--4--4--4------|--4--4--4-----|-------------| 



E|----------------|----------------|-------------------|-----------------| 
B|----------------|----------------|-------------------|-----------------| 
G|----------------|----------------|-------------------|-----------------| 
D|----------------|----------------|--------------7----|--7H9PO7-----7---| 
A|--7S9--9--9--9--|--7S9--9--9--9--|--7S9--9--9-----9--|-----------9-----| 
D|----------------|----------------|-------------------|-----------------| 



E|--------------------|--------------------|-----------------------|----------------| 
B|--------------------|--------------------|-----------------------|----------------| 
G|--------------------|--------------------|-----------------9-----|--11--9------9--| 
D|--9s11--11--11--11--|--9s11--11--11--11--|--9s11--11--11-----11--|---------11-----| 
A|--------------------|--------------------|-----------------------|----------------| 
D|--------------------|--------------------|-----------------------|----------------| 



E|--------------------|--------------------|------------------------|------------------| 
B|--------------------|--------------------|-----------------10-----|--12--10------10--| 
G|--9s11--11--11--11--|--9s11--11--11--11--|--9s11--11--11------11--|----------11------| 
D|--------------------|--------------------|------------------------|------------------| 
A|--------------------|--------------------|------------------------|------------------| 
D|--------------------|--------------------|------------------------|------------------| 



E|---------------------|---------------------|--12--12h14po12------|-------------| 
B|--12s14--14--14--14--|--12s14--14--14--14--|-----------------14--|--12--10--9--| 
G|---------------------|---------------------|---------------------|-------------| 
D|---------------------|---------------------|---------------------|-------------| 
A|---------------------|---------------------|---------------------|-------------| 
D|---------------------|---------------------|---------------------|-------------| 



E|---------12------12------12------12------| 
B|--9--10------10------10------10------10--| 
G|-----------------------------------------| 
D|-----------------------------------------| 
A|-----------------------------------------| 
D|-----------------------------------------| 



E|--9------9--10--9-------------12------12------12------12------| 
B|-----12------------10--9--10------10------10------10------10--| 
G|--------------------------------------------------------------| 
D|--------------------------------------------------------------| 
A|--------------------------------------------------------------| 
D|--------------------------------------------------------------|  (REPEAT 3 x) 



E|-------------------|--| 
B|-------------------|--| 
G|-------------------|--| 
D|--4--4--4----4--4--|--| 
A|--4--4--4----4--4--|--| 
D|--4--4--4----4--4--|--|  (REPEAT 3X) 



E|--------|--------| 
B|--------|--------| 
G|--------|--------| 
D|--4--4--|--4--4--| 
A|--4--4--|--4--4--| 
D|--4--4--|--4--4--| 
		  

See also:

tabs Deep Purple - Demonds Eye tabs Deep Purple - Money Talks tabs Ira! - Eu Quero Sempre Mais (Com Pitty, intro) tabs Albert Hammond Jr - Holiday tabs Deep Purple - Smoke on the water (intro) tabs Deep Purple - Smoke on the Water (ver. 2)
e-chords

Other versions:

tabs Polarity - Digital Recluse
auto scroll beats size up size down change color hide chords drawings
tab show chords e-chords YouTube Clip e-chords hide all tabs e-chords go to top tab

share