Pmmp

Korkeasaari

Pmmp

tabs

by  DEIVCAVALCANTI

save to print version add songbook text version e-mail correct tuner
chordsukulelecavacokeyboardtabbassdrumsharmonicaflute Guitar Pro
close

there isn't a video lesson for this song

chords

Korkeasaari

	  		


VERSE ( PLAY TWICE ) 
E |------------------------------|---------------------------------------| 
B |--9--12--9------9-------------|--9--12--9------9----------------------| 
G |------------11--------------9-|------------11------------9------------| 
D |--------------------9---11----|-------------------9--11---------------| 
A |------------------------------|---------------------------------------| 
E |------------------------------|---------------------------------------| 


E |----------------------------------------------------------------------| 
B |--9--12--9------9-----------------------------------------------------| 
G |------------11-------------9-----8-9-11-8-9---------------------------| 
D |--------------------9--11-------------------9-9-----------------------| 
A |----------------------------------------------------------------------| 
E |----------------------------------------------------------------------| 


Chorus (starts immediately after verse) 


E |-----12-11-9----9--7-----------------------------| 
B |--9----------9---------9------9-----8---9--------| 
G |---------------------------------9----------9----| 
D |------------------------------------------------9| 
A |-------------------------------------------------| 
E |-------------------------------------------------| 


E |-----12-11-9----9-7------------------------------| 
B |--------------9------9--8-9----------------------| 
G |------------------------------9------------------| 
D |--------------------------------9----------------| 
A |-------------------------------------------------| 
E |-------------------------------------------------| 

VERSE (PLAY TWICE) 

E |------------------------------|---------------------------------------| 
B |--9--12--9------9-------------|--9--12--9------9----------------------| 
G |------------11--------------9-|------------11------------9------------| 
D |--------------------9---11----|-------------------9--11---------------| 
A |------------------------------|---------------------------------------| 
E |------------------------------|---------------------------------------| 


E |----------------------------------------------------------------------| 
B |--9--12--9------9-----------------------------------------------------| 
G |------------11-------------9-----8-9-11-8-9---------------------------| 
D |--------------------9--11-------------------9-9-----------------------| 
A |----------------------------------------------------------------------| 
E |----------------------------------------------------------------------| 


Chorus 

E |-----12-11-9----9--7-----------------------------| 
B |--9----------9---------9------9-----8---9--------| 
G |---------------------------------9----------9----| 
D |------------------------------------------------9| 
A |-------------------------------------------------| 
E |-------------------------------------------------| 


E |-----12-11-9----9-7------------------------------| 
B |--------------9------9--8-9----------------------| 
G |------------------------------9------------------| 
D |--------------------------------9----------------| 
A |-------------------------------------------------| 
E |-------------------------------------------------| 


E |-----12-11-9----9--7-----------------------------| 
B |--9----------9---------9------9-----8---9--------| 
G |---------------------------------9----------9----| 
D |------------------------------------------------9| 
A |-------------------------------------------------| 
E |-------------------------------------------------| 


E |-----12-11-9----9-7------------------------------| 
B |--------------9------9--8-9----------------------| 
G |------------------------------9------------------| 
D |--------------------------------9----------------| 
A |-------------------------------------------------| 
E |-------------------------------------------------| 

VERSE ( PLAY ONCE ) 
E |------------------------------|---------------------------------------| 
B |--9--12--9------9-------------|--9--12--9------9----------------------| 
G |------------11--------------9-|------------11------------9------------| 
D |--------------------9---11----|-------------------9--11---------------| 
A |------------------------------|---------------------------------------| 
E |------------------------------|---------------------------------------| 


E |----------------------------------------------------------------------| 
B |--9--12--9------9-----------------------------------------------------| 
G |------------11-------------9-----8-9-11-8-9---------------------------| 
D |--------------------9--11-------------------9-9-----------------------| 
A |----------------------------------------------------------------------| 
E |----------------------------------------------------------------------| 
		  

auto scroll beats size up size down change color hide chords drawings
tab show chords e-chords YouTube Clip e-chords hide all tabs e-chords go to top tab

share